Home » B » Billy Ray Cyrus »

Billy Ray Cyrus - Trail Of Tears Tabs

Artists:  A B C D E F G H I J K L M N O P Q R S T U V W X Y Z # 

Trail Of Tears Tabs

(ver. 1) Click to play this song!
Billy Ray Cyrus
Billy Ray Cyrus - Trail Of Tears (solo)


Tune low E string to D

***********************************************************************

b   =   bend                                    /   =   slide up

\   =   slide down                              h   =   hammer-on

p   =   pulloff

***********************************************************************



E--------------------------------------------------------------------
B---------------------3---------3------3----------------------3------
G----------7-10b-7-5/7-7\5-2-0h2-0-----2-----------7-10b-7-5/7-7/5-2-
D--7-7-7-10-7---------------------3b-0-0---7-7-7-10-7----------------
A--------------------------------------------------------------------
D--------------------------------------------------------------------


E-------------------------------------------------------------
B-----3-1b--------------8b-6-------3---------3----3-----------
G--0h2-2--2-----------7-----7-7-5/7-7/5-2-0h2-2-0--0h2p0------
D-------------7-7-7-10-7--------------------------------3b-0--
A-------------------------------------------------------------
D-------------------------------------------------------------


E-----------------------------------------|
B------1/3-1------------------------------|
G--5b-2-----2-1h2-2-2p1-0-----------------|
D------------------------3b-0--0----------|
A-------------------------------3-0-------|
D----------------------------------3b-0---|

            
Submit corrections

↑ Back to top | Tablatures and chords for acoustic guitar and electric guitar, ukulele, drums are parodies/interpretations of the original songs. You may use it for private study, scholarship, research or language learning purposes only