Home » B » Billy Ray Cyrus »

Billy Ray Cyrus - Heart Of A Woman Tabs

Artists:  A B C D E F G H I J K L M N O P Q R S T U V W X Y Z # 

Heart Of A Woman Tabs

(ver. 1) Click to play this song!
Billy Ray Cyrus
Submitted from notepad


------------------------------------------------------------------------------------------
-------11-11-------13fullb 13r p11 13 11h13-10 -------------10h11p10----------------------
-10/12-------12p10-----------------------------10 10--10h12----------12-10/12-10----10h12-
---------------------------------------------------------------------------------12-------
------------------------------------------------------------------------------------------
------------------------------------------------------------------------------------------

------------------------------------------------------------------------------------------
-----------------------------------------------11----11-11-10-11---10-11-11-10-11----10-11
-----------------------------------------10-12------------------12----------------12------
-12p11p10\8---10/12-8--------8-10/12------------------------------------------------------
------------------------8--10-------------------------------------------------------------
------------------------------------------------------------------------------------------

--------------------------------------13-------18-15----15----15-17halfb 17-15----------15-17 18
-11fullb 11r p10----------------13/15----15/18-------------18-----------------18-16-18----
-----------------12-10/12-14-15-----------------------------------------------------------
------------------------------------------------------------------------------------------
------------------------------------------------------------------------------------------
------------------------------------------------------------------------------------------
            
Submit corrections

↑ Back to top | Tablatures and chords for acoustic guitar and electric guitar, ukulele, drums are parodies/interpretations of the original songs. You may use it for private study, scholarship, research or language learning purposes only