Home » B » Billy Currington »

Billy Currington - That's How Country Boys Roll Tab And Slide Tabs

Artists:  A B C D E F G H I J K L M N O P Q R S T U V W X Y Z # 

That's How Country Boys Roll Tab And Slide Tabs

(ver. 1) Click to play this song!
Billy Currington
Drop D 

E--------------------------------|
B--7-7—5>4-0h2----------3-3-3----|
G--7-7—5>4-0h2----------2-2-2----|
D--7-7—5>4-0h2—-3>2-0-0-0-0-0----|
A--5-5----------3>2-0-0----------|
D---------------3>2-0-0----------|


D                                                       A
They wake up in the morning and they drink their coffee black
A                                                  D
They love their woman one beat shy of a heart attack
D                                                A
On the way to work they might stop by a fishin’ hole
A                           D
That’s how country boys roll
D                                                       A
Yeah, they work, work, work, all week til the job gets done
A                                       D
Weekends they bar-b-que and have a cold one

E------------------------------|
B-8>10--10---------------------|
G-9>11--11--9-7---7------------|
D---------------9--------------|
A------------------------------|
D------------------------------|


D                                            A
They run on a big ol’ heart and a pinch of Skoal
A                       D
That’s how country boys roll

SLIDE GUITAR
E---------------------------------|
B-8>10--------------10-10---------|
G------9>11-----9>11------9>11----|
D-----------12-----------------12-|
A---------------------------------|
D---------------------------------|

Chorus
     G
Yeah, they’re spinnin’ their wheels 
D
Castin’ their reels
A                               D
Way back on them ol’ county roads


SLIDE GUITAR
E-------------------------------|
B—15>13----13>15-13>15----------|
G-------14----------------------|
D-------------------------------|
A-------------------------------|
D-------------------------------|

G
Singin’ in bars
D                           A
Soupin their cars just to see how fast they’ll go


E--------------------------------|
B--14----14----14-----14>12------|
G-----14----14----14—-14>12------|
D--------------------------------|
A--------------------------------|
D--------------------------------|

G                           D
Bm                  A           G
They do everything heart and soul

ANGLE SLIDE TO GET BOTH NOTES

     Bm--A---G
E---------------------------------|
B—15>14>12------------------------|
G—16>14>12------------------------|
D---------------------------------|
A---------------------------------|
D---------------------------------|


D           A              D
That’s how country boys roll




Verse 
D
Well if you don’t know your way around
                      A
They’ll draw you a map
A
And if you’re broke and you ask
 A                                  D
They’ll give you the shirt off their back
D
All they need is a little gas
                    A
A few dollars to fold
A                        D
That’s how country boys roll

Chorus
     G
Yeah, they’re spinnin’ their wheels 
D
Castin’ their reels
A                               D
Way back on them ol’ county roads

SLIDE GUITAR
E--------------12>------------|
B--14-14>12------->15---------|
G-----------13----------------|
D-----------------------------|
A-----------------------------|
D-----------------------------|


G
Singin’ in bars
D                           A
Soupin their cars just to see how fast they’ll go
G                           D
Bm                  A           G
They do everything heart and soul

SLIDE GUITAR
E-----------------------------|
B—10>----10>------------------|
G---->12---->12---------------|
D-----------------------------|
A----------------8>-----------|
E------------------->10-------|


D           A              D
That’s how country boys roll


SOLO: G D A D G D A A

G
Yeah they’re cryin aloud
D
Humble and proud
        Bm          A         G   
They love momma and Jesus and Jones
D          A             D 
That’s how country boys roll
G
Don’t you know
SLIDE GUITAR
E------------------------|
B—10>12—10>12------------|
G-10>12-10>12------------|
D-10>12-10>12------------|
A------------------------|
D------------------------|

D          A             D 
That’s how country boys roll

That's pretty much it, take it and make it your own.
Rate it if you can. Thanks
            
Submit corrections

↑ Back to top | Tablatures and chords for acoustic guitar and electric guitar, ukulele, drums are parodies/interpretations of the original songs. You may use it for private study, scholarship, research or language learning purposes only