» » »

Billy Currington - That's How Country Boy Roll Tabs

Artists:  A B C D E F G H I J K L M N O P Q R S T U V W X Y Z # 

That's How Country Boy Roll Tabs

(ver. 1) Click to play this song!
Billy Currington
 Rating:
4/5 (4 votes)

 That's How Country Boy Roll lessons Tabs too difficult? Try these video lessons and learn fast
 
                Billy Currington:  That’s How Country Boys Roll

Solo:
                   G              D           A                D
E[-2/4-4/6-6/7-----3-3--5-3------------------5-8p5-------------2---------------]
B[-3/5-5/7-7/8-----3-3--5-3-------------7---------8p5----------3---------------]
G[--------------2/4---------4-4-2h4p2h4/7------------7-5-2h4-4-2---------------]
D[-------------------------------------------------------------0---------------]
A[----------------------------------------5/7----------------------------------]
E[-----------------------------------------------------------------------------]
            G                        D
E[-------15--18p15-------------------------------------------------------------]
B[----------------18-15-----15-15-17b-17-15--------------15--------------------]
G[---------------------14h16---------------16-14-14-14h16----------------------]
D[--15h17----------------------------------------------------------------------]
A[-----------------------------------------------------------------------------]
E[-----------------------------------------------------------------------------]
          A                            D
E[-----------------------------------------------------------------------------]
B[-----------------------------------------------------------------------------]
G[-2-4b-4b-4b--2-2-----5-----7------9------12----------------------------------]
D[--------------4---5/7---7/9---9/11--10/12------------------------------------]
A[-----------------------------------------------------------------------------]
E[-----------------------------------------------------------------------------]

            
Submit corrections


        That's How Country Boy Roll lessons Hard to play? Try these video lessons and learn fast That's How Country Boy Roll lessons
        
↑ Back to top | Tablatures and chords for acoustic guitar and electric guitar, ukulele, drums are parodies/interpretations of the original songs. You may use it for private study, scholarship, research or language learning purposes only