Home » B » Billy Currington »

Billy Currington - Next Time Tabs

Artists:  A B C D E F G H I J K L M N O P Q R S T U V W X Y Z # 

Next Time Tabs

(ver. 1) Click to play this song!
Billy Currington
(Solo)
Next Time (solo)
Billy Currington

Drop D Capo 2nd Fret

e------------------------
B------------------------
G------------------------
D------------------------
A--2/4-4-4--2-0--2-0-----
D--------------------0---

e---------------------------------------
B---------------------------------------
G---------------------------------------
D------------------------2--------------
A--2/4-4-4--2-0-2-0--2/4----2h4p2--2-0--
D---------------------------------------



Pretty simple play this during the Interlude part of the tab

Enjoy :)
            
Submit corrections

↑ Back to top | Tablatures and chords for acoustic guitar and electric guitar, ukulele, drums are parodies/interpretations of the original songs. You may use it for private study, scholarship, research or language learning purposes only