Home » B » Billy Currington »

Billy Currington - Must Be Doin Something Right Tabs

Artists:  A B C D E F G H I J K L M N O P Q R S T U V W X Y Z # 

Must Be Doin Something Right Tabs

(ver. 1) Click to play this song!
Billy Currington
This intro should be perfect.
Tell me what you think!


e---------------------------------
B---------------------------------
G----------------------2--4--4/6--
D----------2-----2--4-------------
A--0--2/4-----0-------------------
E---------------------------------

e-----------------------------------------
B--------------------------------------7--
G--------2--2h4--2-----4/6--4--6/7--4/6---
D--2--4-------------2---------------------
A-----------------------------------------
E-----------------------------------------
            
Submit corrections

↑ Back to top | Tablatures and chords for acoustic guitar and electric guitar, ukulele, drums are parodies/interpretations of the original songs. You may use it for private study, scholarship, research or language learning purposes only