Home » B » Billie Holiday »

Billie Holiday - It Had To Be You Chords

Artists:  A B C D E F G H I J K L M N O P Q R S T U V W X Y Z # 

It Had To Be You Chords

(Version #1)
Billie Holiday
[Intro] 
e|------6-7-----------4-5----------4-6-4--7-5----------4----|
B|--9--------7--6---7-----5-4----6--------5----5--7----4----|
G|--8--------7------6-----5------5--------5------------5----|
D|--9---------------7------------6--------4------------4----|
A|--8---------------6------------4---------------------6----|
E|-----------6------------4----------------------------4----|

[Verse]
DbMaj7  Ab7#5 DbMaj7 F7 Bb7 F7 Bb7       Eb9  Bbm7 Eb9 Bbm7    
e|--4-----------3/4------------------------------------------------|
B|--6------5----5/6-----7-----6--------------6---6---6---6---6--6--|
G|--5------5----4/5-----8--7--8--7-----------6---6---6---6---6--6--|
D|--6------4----5/6-----7--6--7--6-----------5---6---5---6---5--6--|
A|--4-----------3/4-----8--8--8--8-------5-6-6-------6-------6-----|
E|-------4-4---------------6-----6---6-8---------6-------6------6--|

[Verse]
            DbMaj7   Ab7#5 DbMaj7     F7        Bb7   F7  Bb7
It had to be you,                 it  had to be you, 
               Eb9  Bbm7      Eb9     Bbm7   Eb9       Bbm7    
I wandered a - round, and finally found, the somebody who;
                 Ab7    Cm7b5  F7               Bbm7   F7   Bbm7  
Could make me be true,         could make me be blue,
    E9    Eb9   Bbm7        Eb9   Bbm7         Eb9     Ab7#5
And even be glad,just to be sad,  thinkin' of you. 

[Chorus]
                DbMaj7 Ab7#5 DbMaj7       F7       Bbm7  F7 Bbm7
Some others I've seen,              might never be mean,
       E9       Eb9  Bbm7       E9  Bbm7   E9            Bbm7     Abm7        
Might  never be cross, try to be boss, but they wouldn't do. 
Abm7 Db9  GbMaj7               Gbm6      DbMaj7    F7       Bbm7       
Nobody    else, gives me the thrill, with all your faults, I love you still;
   E7 (Diminished)   Ab/Eb  D7 (Diminished) Ab/Eb      Ab7#5     DbMaj7 
It had         to be you, wonderful          you,     It had to be you.

[Outro]
DbMaj7  Bb7  Ebm7  Ab7  DbMaj7            
Submit corrections

↑ Back to top | Tablatures and chords for acoustic guitar and electric guitar, ukulele, drums are parodies/interpretations of the original songs. You may use it for private study, scholarship, research or language learning purposes only