Home » B » Billie Holiday »

Billie Holiday - Ill Be Seeing You Tabs

Artists:  A B C D E F G H I J K L M N O P Q R S T U V W X Y Z # 

Ill Be Seeing You Tabs
Version #1
Billie Holiday


Copy URL
[Intro]

e|---------------------------------------------------|
B|-----4-----------------------4---------------------|
G|---3---3-1-----------------3---3-1---------------0-|
D|-----------4-2-2-0-1-3-4-1---------4-2-2-0-1-3-4---|
A|---------------------------------------------------|
E|---------------------------------------------------|

e|---------------------------------------------------|
B|---------------------------3-1---------------------|
G|-0-0---3-2---------3-3-3-2-----3---1---------------|
D|-----4-----0-0-0-3---------------3-----------------|
A|---------------------------------------------------|
E|---------------------------------------------------|

[Chorus]

e|---------------------------------------------------|
B|---------------------------------------------------|
G|---0-----------1-0-0-----------1-0-0-------------0-|
D|-----3-3-1-0-1-------3-3-2-2-3-------3-3-2-2-3-4---|
A|---------------------------------------------------|
E|---------------------------------------------------|

e|---------------------------------------------------|
B|-1-4-3-3-1-0-1-4-3-3-1-0-1-1---------3-1-----1-----|
G|-----------------------------3-3---------0-0-------|
D|---------------------------------4-4-----------4---|
A|-------------------------------------------------3-|
E|---------------------------------------------------|

e|---------------------------------------------------|
B|---------------------------------------------------|
G|---0-----------1-0-0-----------1-0-0-----------3-1-|
D|-----3-3-1-0-1-------3-3-2-2-3-------3-3-2-2-3-----|
A|-3-------------------------------------------------|
E|---------------------------------------------------|

e|---------------------------------------------------|
B|-------------1-1-----3-3-1-0-4-4-3-1---------------|
G|-1-0-0-----0-----3-1-----------------0---0-1-1-1-1-|
D|-------4-4-----------------------------3-----------|
A|---------------------------------------------------|
E|---------------------------------------------------|

e|---------------------------------------------------|
B|-------0-----4-------------------------------------|
G|-1-1-3---3-1---------------------------------------|
D|---------------------------------------------------|
A|---------------------------------------------------|
E|---------------------------------------------------|

[Chorus]

e|---------------------------------------------------|
B|---------------------------------------------------|
G|---0-----------1-0-0-----------1-0-0-------------0-|
D|-----3-3-1-0-1-------3-3-2-2-3-------3-3-2-2-3-4---|
A|---------------------------------------------------|
E|---------------------------------------------------|

e|---------------------------------------------------|
B|-1-4-3-3-1-0-1-4-3-3-1-0-1-1---------3-1-----1-----|
G|-----------------------------3-3---------0-0-------|
D|---------------------------------4-4-----------4---|
A|-------------------------------------------------3-|
E|---------------------------------------------------|

e|---------------------------------------------------|
B|---------------------------------------------------|
G|---0-----------1-0-0-----------1-0-0-----------3-1-|
D|-----3-3-1-0-1-------3-3-2-2-3-------3-3-2-2-3-----|
A|-3-------------------------------------------------|
E|---------------------------------------------------|

e|---------------------------------------------------|
B|-------------1-1-----3-3-1-0-4-4-3-1---------------|
G|-1-0-0-----0-----3-1-----------------0---0-1-1-1-1-|
D|-------4-4-----------------------------3-----------|
A|---------------------------------------------------|
E|---------------------------------------------------|

e|---------------------------------------------------|
B|-------0-----4-------------------------------------|
G|-1-1-3---3-1---------------------------------------|
D|---------------------------------------------------|
A|---------------------------------------------------|
E|---------------------------------------------------|
            
Submit corrections

↑ Back to top | Tablatures and chords for acoustic guitar and electric guitar, ukulele, drums are parodies/interpretations of the original songs. You may use it for private study, scholarship, research or language learning purposes only