» » »

Bijelo Dugme - Kad Bi Bio Bjelo Dugme Tabs

Artists:  A B C D E F G H I J K L M N O P Q R S T U V W X Y Z # 

Kad Bi Bio Bjelo Dugme Tabs

(ver. 1) Click to play this song!
Bijelo Dugme
 Rating:
3.8/5 (5 votes)

 Kad Bi Bio Bjelo Dugme lessons Tabs too difficult? Try these video lessons and learn fast
 
                Intro:
e----------------------------------------------------------]
B----------------------------------------------------------]
G----------------------------------------------------------]
D-5~---0-3b----5---5~~~~~--------0-1------------57575750---]
A-3~---0-----------6~~~~~-----6b------3---------35353530---]
E----------------------------------------------------------]
  w                           w
e---------------------------15b----------------------------]
B--------4-9-(5s6s5~)-------------17-16-15~~~--------------]
G-5br--7---------------------------------------------------]
D-----------------------------------------------57575750---]
A-----------------------------------------------35353530---]
E----------------------------------------------------------]

e--------------------------------------------------------------------]
B--------------------------------------------------------------------]
G--------------------------------------------------------------------]
D-.0.-----.000.------005005005---------------55b---55------55b---55--]
A-.0.-----.000.------003003003-3-3-3-3-3-0---3-----330----3------330-]
E-----------------------------------------00-----00-----00-----00----]
      hey        hey                      pm     pm     pm     pm

Verse:Ima vise varijanti da se ovaj riff svira
e---------------------------------]
B---------------------------------]
G---------------------------------]-mozete 4b na G zici pa vidite koja
D-----55b---55------55b-----------] bolje zvuci, i mozete dodati jos jednu
A----3------330----3----itd....---] nulu na A zici pa pm tako.
E-00-----00-----00----------------]

  pm     pm     pm
Kad bi bio bjelo dugme mala bi se zakopcala ume
Kad bi bio dugme plavo nebi znala da sam kraj nje spavo
Hej mala hej kad bi bio dugme heeeeeeeeeeeej
.....................................................
Da sam zedan sav od zlata unio bi malu oko vrata
Tio bi je cjelog dana nezna selo nezna njena nana
Hej mala hej kad bio bio dugme heeeeeeeeeeeeeeeej

Ovo je ono prije sola (Pre-solo)
e-------------------------------]
B-------------------------------]
G-------------------------------]
D-----55b---55------55b---55----]
A----3------330----3------33----]
E-00------00----00------00------]
  pm      ..    ..      ..
e---------------------------------------------------]
B---------------------------------------------------]
G---------------------------------------------------]
D-----------5b-0-3-0----------------------5b-0-3-0--]
A-00-3-00-3----------00-3-00-3--00-3-00-3-----------]
E---------------------------------------------------]

e-------------------------------------------------]
B-------------------------------------------------]
G-------------------------------------------------]
D----------------------5b-0-3-0------------4---6--]
A-00-3-00-3--00-3-00-3----------00-3-00-3--2---4--]
E-------------------------------------------------]

SOLO-1-jedna gitara svira riff od -Verse- 
                                             w
e------------------------------------------[-19b-x-17p16------15------]
B------------11b12r~--11b-12-100-----------[--------------19----18-17-]
G-1111p12-11---------------------12b-(15~)-[----------------19~-------]
D------------------------------------------[--------------------------]
A------------------------------------------[-----ovo-3 puta onda------]
E------------------------------------------[--------------------------]

e------------------------------------------------------------]
B-15-1010p11~-15b-12-11-12b-9~-12-10-9-12-10-9-12p9-12-10-9~-]
G------------------------------------------------------------]
D------------------------------------------------------------]
A------------------------------------------------------------]
E------------------------------------------------------------]

e-------4x-------]-----------------------------------------]
B---7------------]-----------------------------------------]
G---7-9b-9ili----]-----------------------------------------]
D-5-5----9-------]----55b---55-----55b---55-----55b---55---]
A-3----------0---]---3------330---3------330---3------330--]
E----------------]-00-----00----00-----00----00-----00-----]-onda
                   pm     ..    ..     ..    ..     ..
Verses-ponovo
Pre-Solo-ponovo
Onda ide SOLO-2-tesko je za cuti ali mozes svirati riff za -verse-do kraja
e----------------------------------------------]
B-------------(3)3p5-3----3b-5-4~----9br-7-----]
G---------------------4-3--------3--------9870-]
D-5br-5br-5br----------------------------------]
A-5br-5br-5br----------------------------------]ovo je krivo pa
E----------------------------------------------]ko oce neka zavrsi

To je to. Nadan se da je ova tab ok.
r-release
~-vibrato
b-bend
pm-palm mute
..-isto palm mute
p-pull off
100- u solu to je -10-0-
w-bend whole step
x-muted string
.0.-u uvodu to mute zice nakon kad ih udres
(5s6s5~)-udri 5 i onda vise puta radi slide bez udaranja zice
(15~)-ghost nota-samo pritisnes bez udaranja zice

Izvinite sta izmisljan neke nove keys za tab ka-.0. itd..
Adio 
Marko Polo
            
Submit corrections


        Kad Bi Bio Bjelo Dugme lessons Hard to play? Try these video lessons and learn fast Kad Bi Bio Bjelo Dugme lessons
        
↑ Back to top | Tablatures and chords for acoustic guitar and electric guitar, ukulele, drums are parodies/interpretations of the original songs. You may use it for private study, scholarship, research or language learning purposes only