Home » B » Bijelo Dugme »

Bijelo Dugme - Bekrija Sam Sta Se Kog Tice Tabs

Artists:  A B C D E F G H I J K L M N O P Q R S T U V W X Y Z # 

Bekrija Sam Sta Se Kog Tice Tabs

(ver. 1) Click to play this song!
Bijelo Dugme
 Rating:
4/5 (4 votes)
                           BEKRIJA SAM, STA SE KOG TICE


Solo:
E------------------------|--12b—10\7--------|-----5---7---8---9-|
H----------10-8-------8--|-----------10-8---|-------------------|
G--9999-7------9-9-7-9-9-|---------------7--|--5p6-6/7-7/8-8/9--|
D---------9--------------|----------------9-|-------------------|
A------------------------|------------------|-------------------|
E------------------------|------------------|-------------------|

E-----------------------|-----------------------------|
H-----------------------|-----12-10-------------------|
G-----9-7---------------|--8p9-----11-11109999--------|
D—7p8----9-987777-------|---------------------12-99\3-|
A----------------10-777-|-----------------------------|
E-----------------------|-----------------------------|

E---------------------------------|
H---------------------------------|
G—2/4b-4b-4b-4b-4b-4b-4b-4b-4b/1--|
D---------------------------------|
A---------------------------------|
E---------------------------------|
            
Submit corrections

↑ Back to top | Tablatures and chords for acoustic guitar and electric guitar, ukulele, drums are parodies/interpretations of the original songs. You may use it for private study, scholarship, research or language learning purposes only