» » »

Big And Rich - Rollin-guitar Tabs

Artists:  A B C D E F G H I J K L M N O P Q R S T U V W X Y Z # 

Rollin-guitar Tabs

(ver. 1) Click to play this song!
Big And Rich
 Rating:
4/5 (4 votes)

 Rollin-guitar lessons Tabs too difficult? Try these video lessons and learn fast
 
                (Intro)
Sounds like it is played on a bass, or a guitar with a high bass setting,
or maybe even octaved-played on a guitar and a bass with the guitar like
this and the bass an octave lower, but here are the notes relative to 
the octave that you have on either your bass or guitar.


e-------------------------------------------------------
B----------------------------------------------1h2h3----
G------------0-------------------------0----------------
D--0-0-3-0-0---0-3-0-----0---0-0-3-0-0---0-3-0----------
A--------------------0h3--------------------------------
E-------------------------------------------------------

e-------------------------------------------------------
B-------------------------------------------------------
G------------0-------------------------0----------------
D--0-0-3-0-0---0-3-0-----0---0-0-3-0-0---0-3-0-----0----
A--------------------0h3-----------------------3h4h5----
E-------------------------------------------------------

this "song" is poo, but heres the guitar part that 
was requested. what a waste of good instrumentalists 
on a group who dont even know what kinda music they 
wanna sing, but definitely aint country. 
            
Submit corrections


        Rollin-guitar lessons Hard to play? Try these video lessons and learn fast Rollin-guitar lessons
        
↑ Back to top | Tablatures and chords for acoustic guitar and electric guitar, ukulele, drums are parodies/interpretations of the original songs. You may use it for private study, scholarship, research or language learning purposes only