» » »

Big And Rich - Live This Life-no Caop-intro Tabs

Artists:  A B C D E F G H I J K L M N O P Q R S T U V W X Y Z # 

Live This Life-no Caop-intro Tabs

(ver. 1) Click to play this song!
Big And Rich
 Rating:
4/5 (4 votes)

 Live This Life-no Caop-intro lessons Tabs too difficult? Try these video lessons and learn fast
 
                e--------------------------------------------------
B----------------0---------0-----------------------
G-----------------------------------4--------------
D-------4------2---2---------2----4---4------------        
A---2h4---4--0----------2-------2------------------
E-2-------------------0----------------------------


e--------------------------------------------------
B----------------0---------0-----------------------
G-------------------------------4------------------
D-------4------2---2---------2--4------------------         
A---2h4---4--0----------2-------2------------------
E-2-------------------0----------------------------

            
Submit corrections


        Live This Life-no Caop-intro lessons Hard to play? Try these video lessons and learn fast Live This Life-no Caop-intro lessons
        
↑ Back to top | Tablatures and chords for acoustic guitar and electric guitar, ukulele, drums are parodies/interpretations of the original songs. You may use it for private study, scholarship, research or language learning purposes only