» » »

Big And Rich - I Pray For You Tabs

Artists:  A B C D E F G H I J K L M N O P Q R S T U V W X Y Z # 

I Pray For You Tabs

(ver. 1) Click to play this song!
Big And Rich
 Rating:
4/5 (4 votes)

 I Pray For You lessons Tabs too difficult? Try these video lessons and learn fast
 
                ------------------------------------------------
------------------------------------------------
----9--9--9--11--11--11/13--13--13--13--11--13--
----9--9--9--11--11--11/13--13--13--13--11--13--
----7--7--7---9---9---9/11--11--11--11---9--11--
------------------------------------------------

------------------------------------------------
------------------------------------------------
---14--14--14--13--11--11--11--9--11------------
---14--14--14--13--11--11--11--9--11------------
---12--12--12--11---9---9---9--7---9------------
------------------------------------------------

------------------------------------------------
------------------------------------------------
----9--9--9--11--11--11/13--13--13--13--11--13--
----9--9--9--11--11--11/13--13--13--13--11--13--
----7--7--7---9---9---9/11--11--11--11---9--11--
------------------------------------------------

------------------------------------------------
------------------------------------------------
---14--14--14--13--11--11--11--9--11------------
---14--14--14--13--11--11--11--9--11------------
---12--12--12--11---9---9---9--7---9------------
------------------------------------------------

            
Submit corrections


        I Pray For You lessons Hard to play? Try these video lessons and learn fast I Pray For You lessons
        
↑ Back to top | Tablatures and chords for acoustic guitar and electric guitar, ukulele, drums are parodies/interpretations of the original songs. You may use it for private study, scholarship, research or language learning purposes only