» » »

Big And Rich - Holy Water Tabs

Artists:  A B C D E F G H I J K L M N O P Q R S T U V W X Y Z # 

Holy Water Tabs

(ver. 1) Click to play this song!
Big And Rich
 Rating:
4/5 (4 votes)

 Holy Water lessons Tabs too difficult? Try these video lessons and learn fast
 
                Holy Water

I've seen a lot of ppl ask for the tab to this so here it is
Bare with me this is my first tab
 intro and verse:
C5                                                                       F5
e|----------------------------                                       e|-------------------------   
b|----------------------------                                       b|-------------------------
g|----------------------------  STRUM EACH CORD 1234 1234 THEN:      g|---------5---------------
d|----------5-----------------                                       d|------3------------------
a|---------3------------------                                       a|-------------------------
E|----------------------------                                       E|-------------------------



1234 1234  ALL DOWN STROKES                      ------>                  1234 1234 ALL DOWN STROKES
THIS WORKS FOR THE INTRO AND FOR THE VERSE

INTRO= X2
VERSE= X7


Am                                               G                                F
e|--------------------------                e|---------3-------                e|---------------
b|------------1--------------               b|-----------------                b|---------------
g|-----------2---------------               g|-----------------                g|-------2--------
d|---------2----------------                d|-----------------                d|------3---------
a|-------------------------                 a|-------2---------                a|-----3---------
E|-------------------------                 E|-----3-----------                E|----1----------  

this starts on the end of the verse "kneeling at the edge"  listen for strumming pattern


Chorus:

C                                           F
e|----------------                       e|---------------
b|-------1---------                      b|---------------
g|-----------------                      g|-------2--------       x3 listen for strumming pattern
d|----2-----------                       d|------3---------
a|---3------------                       a|-----3---------
E|--3-------------                       E|----1---------- 

________________________________________________________________________________________________

C                                           F
e|----------------                       e|---------------
b|-------1---------                      b|---------------
g|-----------------                      g|-------2--------       
d|----2-----------                       d|------3---------
a|---3------------                       a|-----3---------
E|--3-------------                       E|----1---------- 


     
C5                                                           F5
e|----------------------------           e|-------------------------   
b|----------------------------           b|-------------------------
g|--------------5--------------          g|-----------5-------------
d|----------3-----------------           d|------------------------
a|---------------------------            a|--------3-----------------
E|----------------------------           E|-------------------------

at end of chorus "and hold, hold, hold me like holy water"

Then go back into the C5---->F5 verse part   




Bridge: "she just needs a little help"

Am                                              F                               G
e|--------------------------             e|---------------                  e|---------3------
b|------------1--------------            b|---------------                  b|----------------
g|-----------2---------------            g|-------2--------                 g|---------------- x2
d|---------2----------------             d|------3---------                 d|----------------
a|-------------------------              a|-----3---------                  a|-----2---------
E|-------------------------              E|----1----------                  E|----3----------

after this finish the song with the verse C5---->F5 part
 

I would appreciate your comments/questions

if there is a problem i will fix it to the best of my ability

thanks!!!
            
Submit corrections


        Holy Water lessons Hard to play? Try these video lessons and learn fast Holy Water lessons
        
↑ Back to top | Tablatures and chords for acoustic guitar and electric guitar, ukulele, drums are parodies/interpretations of the original songs. You may use it for private study, scholarship, research or language learning purposes only