Home » B » BöHse Onkelz »

BöHse Onkelz - Willkommen Tabs

Artists:  A B C D E F G H I J K L M N O P Q R S T U V W X Y Z # 

Willkommen Tabs

(ver. 1) Click to play this song!
BöHse Onkelz
[Intro]
e|-----------------|-----------------|-----------------|-----------------|
B|-----------------|-----------------|-----------------|-----------------| x2
G|-----9-------7---|-----5-------4---|-9-----9-----9---|-9-----9-----9---|
D|---9-------7-----|---5-------4-----|-9-9-9-9-9-9-9-9-|-9-9-9-9-9-9-9-9-|
A|-7-------5-------|-3-------2-------|-7-7-7-7-7-7-7-7-|-7-7-7-7-7-7-7-7-|
E|-----------------|-----------------|-----------------|-----------------|
                                         . .   . .   .     . .   . .   .
 
e|-----------------|-----------------|    |-----------------|-----------------|
B|-----------------|-----------------| x3 |-----------------|-----------------| x1
G|-----------------|-----------------|    |-----------------|-----------------|
D|-9-9-9-9-9-9-9-9-|-5-5-5-5-5-5-5-5-|    |-----------------|-7-7-7-7-7-7-7-7-|
A|-7-7-7-7-7-7-7-7-|-3-3-3-3-3-3-3-3-|    |-5-5-5-5-5-5-5-5-|-5-5-5-5-5-5-5-5-|
E|-----------------|-----------------|    |-3-3-3-3-3-3-3-3-|-----------------|
   . . . . . . . .   . . . . . . . .        . . . . . . . .   . . . . . . . .
 
[Verse] x2
e|-----------------|-----------------|    |-----------------|-----------------|
B|-----------------|-----------------| x3 |-----------------|-----------------| x1
G|-9---9-9-9-9-9-9-|-5---5-5-5-5-5-5-|    |-----------------|-7---7-7-7-7-7-7-|
D|-9---9-9-9-9-9-9-|-5---5-5-5-5-5-5-|    |-5---5-5-5-5-5-5-|-7---7-7-7-7-7-7-|
A|-7---7-7-7-7-7-7-|-3---3-3-3-3-3-3-|    |-5---5-5-5-5-5-5-|-5---5-5-5-5-5-5-|
E|-----------------|-----------------|    |-3---3-3-3-3-3-3-|-----------------|
 
[Chorus]
e|-----------------|-----------------|-----------------|-----------------|
B|-----------------|-----------------|-----------------|-----------------|
G|-5---5-5-7---7-7-|-9---9-9-9-9-9-9-|-5---5-5-7---7-7-|-9---9-9-9-9-9-9-|
D|-5---5-5-7---7-7-|-9---9-9-9-9-9-9-|-5---5-5-7---7-7-|-9---9-9-9-9-9-9-|
A|-3---3-3-5---5-5-|-7---7-7-7-7-7-7-|-3---3-3-5---5-5-|-7---7-7-7-7-7-7-|
E|-----------------|-----------------|-----------------|-----------------|
 
e|-----------------|-----------------|-----------------|-----------------|-----------------|-----------------|
B|-----------------|-----------------|-----------------|-----------------|-----------------|-----------------|
G|-5---5-5-7---7-7-|-9---9-9-9-9-9-9-|-5---------------|-----------------|-9-----9-----9---|-9-----9-----9---|
D|-5---5-5-7---7-7-|-9---9-9-9-9-9-9-|-5---------------|-----------------|-9-9-9-9-9-9-9-9-|-9-9-9-9-9-9-9-9-|
A|-3---3-3-5---5-5-|-7---7-7-7-7-7-7-|-3---------------|-----------------|-7-7-7-7-7-7-7-7-|-7-7-7-7-7-7-7-7-|
E|-----------------|-----------------|-----------------|-----------------|-----------------|-----------------|
                                                                             . .   . .   .     . .   . .   .
 
[Interlude]
e|-----------------|-----------------|-----------------|-----------------|
B|-----------------|-----------------|-----------------|-----------------| x2
G|-----9-------7---|-----5-------4---|-9-----9-----9---|-9-----9-----9---|
D|---9-------7-----|---5-------4-----|-9-9-9-9-9-9-9-9-|-9-9-9-9-9-9-9-9-|
A|-7-------5-------|-3-------2-------|-7-7-7-7-7-7-7-7-|-7-7-7-7-7-7-7-7-|
E|-----------------|-----------------|-----------------|-----------------|
                                         . .   . .   .     . .   . .   .
 
e|-----------------|-----------------|    |-----------------|-----------------|
B|-----------------|-----------------| x3 |-----------------|-----------------| x1
G|-----------------|-----------------|    |-----------------|-----------------|
D|-9-9-9-9-9-9-9-9-|-5-5-5-5-5-5-5-5-|    |-----------------|-7-7-7-7-7-7-7-7-|
A|-7-7-7-7-7-7-7-7-|-3-3-3-3-3-3-3-3-|    |-5-5-5-5-5-5-5-5-|-5-5-5-5-5-5-5-5-|
E|-----------------|-----------------|    |-3-3-3-3-3-3-3-3-|-----------------|
   . . . . . . . .   . . . . . . . .        . . . . . . . .   . . . . . . . .
 
[Verse] x2
e|-----------------|-----------------|    |-----------------|-----------------|
B|-----------------|-----------------| x3 |-----------------|-----------------| x1
G|-9---9-9-9-9-9-9-|-5---5-5-5-5-5-5-|    |-----------------|-7---7-7-7-7-7-7-|
D|-9---9-9-9-9-9-9-|-5---5-5-5-5-5-5-|    |-5---5-5-5-5-5-5-|-7---7-7-7-7-7-7-|
A|-7---7-7-7-7-7-7-|-3---3-3-3-3-3-3-|    |-5---5-5-5-5-5-5-|-5---5-5-5-5-5-5-|
E|-----------------|-----------------|    |-3---3-3-3-3-3-3-|-----------------|
 
[Chorus]
e|-----------------|-----------------|-----------------|-----------------|
B|-----------------|-----------------|-----------------|-----------------|
G|-5---5-5-7---7-7-|-9---9-9-9-9-9-9-|-5---5-5-7---7-7-|-9---9-9-9-9-9-9-|
D|-5---5-5-7---7-7-|-9---9-9-9-9-9-9-|-5---5-5-7---7-7-|-9---9-9-9-9-9-9-|
A|-3---3-3-5---5-5-|-7---7-7-7-7-7-7-|-3---3-3-5---5-5-|-7---7-7-7-7-7-7-|
E|-----------------|-----------------|-----------------|-----------------|
 
e|-----------------|-----------------|-----------------|-----------------|-----------------|-----------------|
B|-----------------|-----------------|-----------------|-----------------|-----------------|-----------------|
G|-5---5-5-7---7-7-|-9---9-9-9-9-9-9-|-5---------------|-----------------|-9-----9-----9---|-9-----9-----9---|
D|-5---5-5-7---7-7-|-9---9-9-9-9-9-9-|-5---------------|-----------------|-9-9-9-9-9-9-9-9-|-9-9-9-9-9-9-9-9-|
A|-3---3-3-5---5-5-|-7---7-7-7-7-7-7-|-3---------------|-----------------|-7-7-7-7-7-7-7-7-|-7-7-7-7-7-7-7-7-|
E|-----------------|-----------------|-----------------|-----------------|-----------------|-----------------|
                                                                             . .   . .   .     . .   . .   .
 
[Solo] x2
e|-----------------|-----------------|    |-----------------|-----------------|
B|-----------------|-----------------| x3 |-----------------|-----------------| x1
G|-9-----------9---|-5-----------5---|    |-----------------|-7-----------7---|
D|-9-----------9---|-5-----------5---|    |-5-----------5---|-7-----------7---|
A|-7-----------7---|-3-----------3---|    |-5-----------5---|-5-----------5---|
E|-----------------|-----------------|    |-3-----------3---|-----------------|
 
[Chorus] x2
e|-----------------|-----------------|-----------------|-----------------|
B|-----------------|-----------------|-----------------|-----------------|
G|-5---5-5-7---7-7-|-9---9-9-9-9-9-9-|-5---5-5-7---7-7-|-9---9-9-9-9-9-9-|
D|-5---5-5-7---7-7-|-9---9-9-9-9-9-9-|-5---5-5-7---7-7-|-9---9-9-9-9-9-9-|
A|-3---3-3-5---5-5-|-7---7-7-7-7-7-7-|-3---3-3-5---5-5-|-7---7-7-7-7-7-7-|
E|-----------------|-----------------|-----------------|-----------------|
 
e|-----------------|-----------------|-----------------|-----------------|
B|-----------------|-----------------|-----------------|-----------------|
G|-5---5-5-7---7-7-|-9---9-9-9-9-9-9-|-5---------------|-----------------|
D|-5---5-5-7---7-7-|-9---9-9-9-9-9-9-|-5---------------|-----------------|
A|-3---3-3-5---5-5-|-7---7-7-7-7-7-7-|-3---------------|-----------------|
E|-----------------|-----------------|-----------------|-----------------|
 
[Outro]
e|-----------------|-----------------|-----------------|-----------------|
B|-----------------|-----------------|-----------------|-----------------|
G|-9-------7-------|-5-------4-------|-----------------|-----------------|
D|-9-------7-------|-5-------4-5-4---|-2---------------|-----------------|
A|-7-------5-------|-3-------2-5-4---|-2---------------|-----------------|
E|-----------------|-----------3-2---|-0---------------|-----------------|
            
Submit corrections

↑ Back to top | Tablatures and chords for acoustic guitar and electric guitar, ukulele, drums are parodies/interpretations of the original songs. You may use it for private study, scholarship, research or language learning purposes only