Home » B » BöHse Onkelz »

BöHse Onkelz - Terpentin Tabs

Artists:  A B C D E F G H I J K L M N O P Q R S T U V W X Y Z # 

Terpentin Tabs

(ver. 1) Click to play this song!
BöHse Onkelz
Tuning: E - A - D - G - B - e
Capo: I

[Intro]:                      
e|-x-x-x-x-x---x-x---x-x---x-x-x-x--|    Snare-Drum-Part ;)
B|-x-x-x-x-x---x-x---x-x---x-x-x-x--|
G|-x-x-x-x-x---x-x---x-x---x-x-x-x--|
D|-x-x-x-x-x---x-x---x-x---x-x-x-x--|
A|-x-x-x-x-x---x-x---x-x---x-x-x-x--|
E|-x-x-x-x-x---x-x---x-x---x-x-x-x--|

   C                                  Am
e|----------------------------------|----------------------------------|
B|-1---0---1-------1---0-1---3------|-1---0---1-------1---0-1---3------|
G|-0---0---0-------0---0-0---0------|-2---2---2-------2---2-2---2------|
D|-2---2---2---2-2-2---2-2---2-2-2--|-2---2---2---2-2-2---2-2---2-2-2--|
A|-3---3---3---3-3-3---3-3---3-3-3--|-0---0---0---0-0-0---0-0---0-0-0--|
E|----------------------------------|----------------------------------|

   F                                  G
e|----------------------------------|----------------------------------|
B|-1---0---1-------1---0-1---3------|-1-------0------------------------|
G|-2---2---2-------2---2-2---2------|-0-------0-------2-------0--------|
D|-3---3---3---3-3-3---3-3---3-3-3--|-0---0-0-0---0-0-0---0-0-0-0-0-0--|
A|-3---3---3---3-3-3---3-3---3-3-3--|-2---2-2-2---2-2-2---2-2-2-2-2-2--|
E|-1---1---1---1-1-1---1-1---1-1-1--|-3---3-3-3---3-3-3---3-3-3-3-3-3--|   

   C                                  Am
e|----------------------------------|----------------------------------|
B|-1---0---1-------1---0-1---3------|-1---0---1-------1---0-1---3------|
G|-0---0---0-------0---0-0---0------|-2---2---2-------2---2-2---2------|
D|-2---2---2---2-2-2---2-2---2-2-2--|-2---2---2---2-2-2---2-2---2-2-2--|
A|-3---3---3---3-3-3---3-3---3-3-3--|-0---0---0---0-0-0---0-0---0-0-0--|
E|----------------------------------|----------------------------------|

   F                                  G
e|----------------------------------|-0--------------------------------|
B|-1---0---1-------1---0-1---3------|-0-------3-------1-------0--------|
G|-2---2---2-------2---2-2---2------|-0-------0-------0-------0--------|
D|-3---3---3---3-3-3---3-3---3-3-3--|-0---0-0-0---0-0-0---0-0-0-0-0-0--|
A|-3---3---3---3-3-3---3-3---3-3-3--|-2---2-2-2---2-2-2---2-2-2-2-2-2--|
E|-1---1---1---1-1-1---1-1---1-1-1--|-3---3-3-3---3-3-3---3-3-3-3-3-3--|


[Verse]:
           C
Wir wollen Mauern niederreisen,
Am
Geschichte machen,
    F
die Fetzen sollen fliegen,
    G
die Schwarten sollen krachen.
    C
Der Widerstand wachst
    Am
mir groseren Zielen - 
    F
wir existieren wirklich
       G
zum Verhangnis von vielen.


[Interlude]:
   C                                  Am
e|----------------------------------|----------------------------------|
B|-1---0---1-------1---0-1---3------|-1---0---1-------1---0-1---3------|
G|-0---0---0-------0---0-0---0------|-2---2---2-------2---2-2---2------|
D|-2---2---2---2-2-2---2-2---2-2-2--|-2---2---2---2-2-2---2-2---2-2-2--|
A|-3---3---3---3-3-3---3-3---3-3-3--|-0---0---0---0-0-0---0-0---0-0-0--|
E|----------------------------------|----------------------------------|

   F                                  G
e|----------------------------------|----------------------------------|
B|-1---0---1-------1---0-1---3------|-1-------0------------------------|
G|-2---2---2-------2---2-2---2------|-0-------0-------2-------0--------|
D|-3---3---3---3-3-3---3-3---3-3-3--|-0---0-0-0---0-0-0---0-0-0-0-0-0--|
A|-3---3---3---3-3-3---3-3---3-3-3--|-2---2-2-2---2-2-2---2-2-2-2-2-2--|
E|-1---1---1---1-1-1---1-1---1-1-1--|-3---3-3-3---3-3-3---3-3-3-3-3-3--| 


[Verse]:
      C
Unser Name lebt langer
Am
als unser Leib.
F
Wir sind unsterblich - 
G
ihr tut uns leid.
C
Wer bo(h)ses sat
Am
wird Onkelz ernten.
F
Der Tanz beginnt
    G
von Flensburg bis nach Karnten.


[Chorus]:
C
Ja, hier sind wir,
      Am
euere Feinde und Ziel,
              F 
wir gehen zum Lachen in den Keller
    G
und trinken Terpentin.
C
Ja, hier sind wir,
      Am
euere Feinde und Ziel,
              F 
wir gehen zum Lachen in den Keller
    G
und trinken Terpentin.


[Interlude]:
   C                                  Am
e|----------------------------------|----------------------------------|
B|-1---0---1-------1---0-1---3------|-1---0---1-------1---0-1---3------|
G|-0---0---0-------0---0-0---0------|-2---2---2-------2---2-2---2------|
D|-2---2---2---2-2-2---2-2---2-2-2--|-2---2---2---2-2-2---2-2---2-2-2--|
A|-3---3---3---3-3-3---3-3---3-3-3--|-0---0---0---0-0-0---0-0---0-0-0--|
E|----------------------------------|----------------------------------|

   F                                  G
e|----------------------------------|----------------------------------|
B|-1---0---1-------1---0-1---3------|-1-------0------------------------|
G|-2---2---2-------2---2-2---2------|-0-------0-------2-------0--------|
D|-3---3---3---3-3-3---3-3---3-3-3--|-0---0-0-0---0-0-0---0-0-0-0-0-0--|
A|-3---3---3---3-3-3---3-3---3-3-3--|-2---2-2-2---2-2-2---2-2-2-2-2-2--|
E|-1---1---1---1-1-1---1-1---1-1-1--|-3---3-3-3---3-3-3---3-3-3-3-3-3--| 


[Verse]:
C
Wir gehen vorwarts,
Am
ohne Furcht,
F
nicht am Rand
       G
sondern mitten durch.
       C
Wir zerstoren eure Mythen,
Am
habt ihr es vernommen?
F
"Schluss mit lustig - 
G
die Onkelz kommen!"


[Chorus]:
C
Ja, hier sind wir,
      Am
euere Feinde und Ziel,
              F 
wir gehen zum Lachen in den Keller
    G
und trinken Terpentin.
C
Ja, hier sind wir,
      Am
euere Feinde und Ziel,
              F 
wir gehen zum Lachen in den Keller
    G
und trinken Terpentin.


[Interlude]:
   C                                  Am
e|----------------------------------|----------------------------------|
B|-1---0---1-------1---0-1---3------|-1---0---1-------1---0-1---3------|
G|-0---0---0-------0---0-0---0------|-2---2---2-------2---2-2---2------|
D|-2---2---2---2-2-2---2-2---2-2-2--|-2---2---2---2-2-2---2-2---2-2-2--|
A|-3---3---3---3-3-3---3-3---3-3-3--|-0---0---0---0-0-0---0-0---0-0-0--|
E|----------------------------------|----------------------------------|

   F                                  G
e|----------------------------------|----------------------------------|
B|-1---0---1-------1---0-1---3------|-1-------0-------1-------3--------|
G|-2---2---2-------2---2-2---2------|-0-------0-------0-------0--------|
D|-3---3---3---3-3-3---3-3---3-3-3--|-0---0-0-0---0-0-0---0-0-0-0-0-0--|
A|-3---3---3---3-3-3---3-3---3-3-3--|-2---2-2-2---2-2-2---2-2-2-2-2-2--|
E|-1---1---1---1-1-1---1-1---1-1-1--|-3---3-3-3---3-3-3---3-3-3-3-3-3--| 


[Bridge]:
Em              F
Steht auf, oder sterbt auf euren Knien!
Dm             G
Steht auf, oder ihr lernt es nie!   


[Chorus]:
C
Ja, hier sind wir,
      Am
euere Feinde und Ziel,
              F 
wir gehen zum Lachen in den Keller
    G
und trinken Terpentin.
C
Ja, hier sind wir,
      Am
euere Feinde und Ziel,
              F 
wir gehen zum Lachen in den Keller
    G
und trinken Terpentin.

[Outro]:
      C          Am         F          G
Terpentin! Terpentin! Terpentin! Terpentin!
      C          Am         F          G
Terpentin! Terpentin! Terpentin! Terpentin!
C        Am       F           G
Ooooh oh ooooh oh ooooh oh oh ooooh
C        Am       F           G
Ooooh oh ooooh oh ooooh oh oh ooooh

[Outro Solo]*
   C                                  Am
e|----------------------------------|----------------------------------|
B|-1---0---1-------1---0-1---3------|-1---0---1-------1---0-1---3------|
G|-0---0---0-------0---0-0---0------|-2---2---2-------2---2-2---2------|
D|-2---2---2---2-2-2---2-2---2-2-2--|-2---2---2---2-2-2---2-2---2-2-2--|
A|-3---3---3---3-3-3---3-3---3-3-3--|-0---0---0---0-0-0---0-0---0-0-0--|
E|----------------------------------|----------------------------------|

   F                                  G                                  C
e|----------------------------------|----------------------------------|-----|
B|-1---0---1-------1---0-1---3------|-1-------0------------------------|-1---|
G|-2---2---2-------2---2-2---2------|-0-------0-------2-------0--------|-0---|
D|-3---3---3---3-3-3---3-3---3-3-3--|-0---x-x-0---x-x-0---x-x-0---x-x--|-2---|
A|-3---3---3---3-3-3---3-3---3-3-3--|-2---x-x-2---x-x-2---x-x-2---x-x--|-3---|
E|-1---1---1---1-1-1---1-1---1-1-1--|-3---x-x-3---x-x-3---x-x-3---x-x--|-----|
            
Submit corrections

↑ Back to top | Tablatures and chords for acoustic guitar and electric guitar, ukulele, drums are parodies/interpretations of the original songs. You may use it for private study, scholarship, research or language learning purposes only