Home » B » BöHse Onkelz »

BöHse Onkelz - Könige Für Einen Tag Tabs

Artists:  A B C D E F G H I J K L M N O P Q R S T U V W X Y Z # 

Könige Für Einen Tag Tabs

(ver. 1) Click to play this song!
BöHse Onkelz
[Intro]  (4x)
e|---------------------------------------------------------------------------|
B|---------------------------------------------------------------------------|
G|-12-14---------------------------------------------------------------------|
D|-12-14-14-14-14-14-14------------------------------------------------------|
A|-10-12-14-14-14-14-14------------------------------------------------------|
E|-------12-12-12-12-12------------------------------------------------------|

  (2x)
e|---------------------------------------------------------------------------|
B|---------------------------------------------------------------------------|
G|-------------------------------------2-2-----------------------------------|
D|-2-------------------------2---------2-2-----------------------------------|
A|-2-------------------------2---------0-0-----------------------------------|
E|-0-3-0-3-0-x-x-x-x-x-x-x-x-0-3-0-3-0-----3---------------------------------|

[Verse]  (2x)
e|---------------------------------------------------------------------------|
B|---------------------------------------------------------------------------|
G|-9-----------------7-----------------------------------4-------------------|
D|-9-----------------7-----------------5-----------------4-------------------|
A|-7-----------------5-----------------5-----------------2-------------------|
E|----0-3-0-3-0-3-0-----0-3-0-3-0-3-0--3--0-3-0-3-0-3-0-----0-3-0-3-0-3-0----|

[Chorus]
e|---------------------------------------------------------------------------|
B|---------------------------------------------------------------------------|
G|-12-12--------------12-12--------------12-12-------------------------------|
D|-12-12-5-5-7-5-5-5--12-12-7-7-9-7-7-7--12-12-5-5-7-5-5-5-------------------|
A|-10-10-3-3-3-3-3-3--10-10-5-5-5-5-5-5--10-10-3-3-3-3-3-3-------------------|
E|---------------------------------------------------------------------------|

e|---------------------------------------------------------------------------|
B|---------------------------------------------------------------------------|
G|-7--11--9--7--5/7\5--------------------------------------------------------|
D|-7--11--9--7--5/7\5--------------------------------------------------------|
A|-5--8---7--5--3/5\3--------------------------------------------------------|
E|---------------------------------------------------------------------------|

e|---------------------------------------------------------------------------|
B|---------------------------------------------------------------------------|
G|-12-12--------------12-12--------------12-12-------------------------------|
D|-12-12-5-5-7-5-5-5--12-12-7-7-9-7-7-7--12-12-5-5-7-5-5-5-------------------|
A|-10-10-3-3-3-3-3-3--10-10-5-5-5-5-5-5--10-10-3-3-3-3-3-3-------------------|
E|---------------------------------------------------------------------------|

e|---------------------------------------------------------------------------|
B|---------------------------------------------------------------------------|
G|-7--11--9--7--5/7\5--------------------------------------------------------|
D|-7--11--9--7--5/7\5--------------------------------------------------------|
A|-5--8---7--5--3/5\3--------------------------------------------------------|
E|---------------------------------------------------------------------------|

[Solo]
e|-----------------------------------------------------------------------------------------|
B|-11b12-11b12-11b12-11b12-11b12-11b12-11b12-11b12-9b11-9b11-9b11-9b11-9b11-9b11-9b11-9b11-|
G|-11b12-11b12-11b12-11b12-11b12-11b12-11b12-11b12-9b11-9b11-9b11-9b11-9b11-9b11-9b11-9b11-|
D|-----------------------------------------------------------------------------------------|
A|-----------------------------------------------------------------------------------------|
E|-----------------------------------------------------------------------------------------|

e|---------------------------------------------------------------------------------------------------------|
B|-10-10-10-12-12-12-13-13-13-15-15-15-17-17-17-19-19-19-20-20-20-21-21-21--22b24-22b24-22b24-22b24-22b24--|
G|---------------------------------------------------------------------------------------------------------|
D|---------------------------------------------------------------------------------------------------------|
A|---------------------------------------------------------------------------------------------------------|
E|---------------------------------------------------------------------------------------------------------|
  
  (repeat the first four notes of this part by feeling, it's played to often to count this)
e|---12-15p12-----------------------------------------------------------------------|
B|-15--------------------------------------------------------------------------|
G|---------------------------------------------------------------------------|
D|---------------------------------------------------------------------------|
A|---------------------------------------------------------------------------|
E|---------------------------------------------------------------------------|
  
(sorry, couldn't find out the rest of the guitar solo)
e|---------------------------------------------------------------------------|
B|---------------------------------------------------------------------------|
G|---------------------------------------------------------------------------|
D|---------------------------------------------------------------------------|
A|---------------------------------------------------------------------------|
E|---------------------------------------------------------------------------|            
Submit corrections

↑ Back to top | Tablatures and chords for acoustic guitar and electric guitar, ukulele, drums are parodies/interpretations of the original songs. You may use it for private study, scholarship, research or language learning purposes only