Home » B » BöHse Onkelz »

BöHse Onkelz - Ich Bin Wie Ich Bin Tabs

Artists:  A B C D E F G H I J K L M N O P Q R S T U V W X Y Z # 

Ich Bin Wie Ich Bin Tabs

(ver. 1) Click to play this song!
BöHse Onkelz
[Intro] x2
e|------------------------------------------------------------------------|
B|------------------------------------------------------------------------|
G|------------------------------------------------------------------------|
D|------------------------------------------------------------------------|
A|-0-2-3---2----------5----------0-2-3---2--------------------------------| 
E|-----------3------0----------------------3---0-1------------------------|

[Verse] x5
e|------------------------------------------------------------------------|
B|------------------------------------------------------------------------|
G|------------------------------------------------------------------------|
D|------------------------------------------------------------------------|
A|-0-2-3---2----------5----------0-2-3---2-------5------------------------| 
E|-----------3------0----------------------3---0--------------------------|

[Bridge]
e|------------------------------------------------------------------------|
B|------------------------------------------------------------------------|
G|------------------------------------5-------5-------5-------5-----------|
D|-3-3-3-3-3-3-3-3-3-3-3-3-3-3-3-3----5---5---5---5---5---5---5---5-------|
A|-3-3-3-3-3-3-3-3-3-3-3-3-3-3-3-3----3---5---3---5---3---5---3---5-------| 
E|-1-1-1-1-1-1-1-1-1-1-1-1-1-1-1-1--------3-------3-------3-------3-------|

e|------------------------------------------------------------------------|
B|------------------------------------------------------------------------|
G|-5-------5--------------------------------------------------------------|
D|-5---5---5---5----------------------------------------------------------|
A|-3---5---3---5----------------------------------------------------------| 
E|-----3-------3----------------------------------------------------------|

[Refrain]
e|------------------------------------------------------------------------|
B|------------------------------------------------------------------------|
G|------------------------------------------------------------------------|
D|-5---7---10---12--------------------------------------------------------|
A|-5---7---10---12--------------------------------------------------------| 
E|-3---5---8----10--------------------------------------------------------|            
Submit corrections

↑ Back to top | Tablatures and chords for acoustic guitar and electric guitar, ukulele, drums are parodies/interpretations of the original songs. You may use it for private study, scholarship, research or language learning purposes only