Home » B » BöHse Onkelz »

BöHse Onkelz - Gott Hat Ein Problem Chords

Artists:  A B C D E F G H I J K L M N O P Q R S T U V W X Y Z # 

Gott Hat Ein Problem Chords

(ver. 1) Click to play this song!
BöHse Onkelz
[Akkorde]
     Em      G       D    D6-9/F# Cmaj7/G  Asus2   Bsus4     A5     B5      C5      D5
D|---0---|---3---|---2---|---0---|---0---|---0---|---0---|-------|-------|-------|-------|
A|---0---|---3---|---3---|---0---|---0---|---0---|---0---|-------|-------|-------|-------|
F|---0---|---0---|---2---|---2---|---0---|---2---|---4---|---2---|---4---|---5---|---7---|
C|---2---|---0---|---0---|---0---|---2---|---2---|---4---|---2---|---4---|---5---|---7---|
G|---2---|---2---|-------|---0---|---3---|---0---|---2---|---0---|---2---|---3---|---5---|
D|---0---|---3---|-------|---2---|---3---|-------|-------|-------|-------|-------|-------|

Anm.: 
Ich glaube kaum, dass Gonzo sich bei den Aufnahmen gedacht hat
"Mensch, ich glaube, hier spiel' ich mal 'nen D6-9/F#"
Vielmehr ist es so, dass Gonzo - gerade in ruhigen Passagen - gerne die letzten beiden Saiten offen spielt
(Beispiele dafur waren "Erinnerungen" und "Nichts ist fur die Ewigkeit")

Diese Akkorde haben dann leider meist recht ungluckliche Namen, lasst euch dadurch nicht verwirren.
Ob er die Bass-Saiten auch so spielt, weis ich nicht, aber ich spiele sie so auf Akustikgitarre, weil sich
dadurch ein sehr schoner Basslauf nach oben ergibt.

[Intro]

  N.C.
D|-------------------------------------------------|-------------------------------------------------|
A|-------------------------------------------------|-------------------------------------------------|
F|-------------------------------------------------|-------------------------------------------------|
C|-------------------------------------------------|-------------------------------------------------|
G|----------7--7--7----------10-10-10-10-10-10-10--|----------7--7--7----------10-10-10-10-10-10-10--|
D|-0--0--0----------10-10-10-----------------------|-0--0--0----------10-10-10-----------------------|

   Em                D        G                      Em                D        G
D|-------------------------------------------------|-------------------------------------------------|
A|-------------------------------------------------|-------------------------------------------------|
F|-------------------------------------------------|-------------------------------------------------|
C|----------9--9--9----------12-12-12-12-12-12-12--|----------9--9--9----------12-12-12-12-12-12-12--|
G|-2--2--2--7--7--7-12-12-12-10-10-10-10-10-10-10--|-2--2--2--7--7--7-12-12-12-10-10-10-10-10-10-10--|
D|-0--0--0----------10-10-10-----------------------|-0--0--0----------10-10-10-----------------------|

   Em                D        G                      Em                D        G
D|-------------------------------------------------|-------------------------------------------------|
A|-------------------------------------------------|-------------------------------------------------|
F|-------------------------------------------------|-------------------------------------------------|
C|----------9--9--9----------12-12-12-12-12-12-12--|----------9--9--9----------12-12-12-12-12-12-12--|
G|-2--2--2--7--7--7-12-12-12-10-10-10-10-10-10-10--|-2--2--2--7--7--7-12-12-12-10-10-10-10-10-10-10--|
D|-0--0--0----------10-10-10-----------------------|-0--0--0----------10-10-10-----------------------|

[Intro 2]

   Em                                                D6-9/F#
D|-------------------------------------------------|-------------------------------------------------|
A|-------0-----------------1--------0--------------|-------0-----------------1--------0--------------|
F|----------------2-----------------------2--0-----|----------------2-----------------------2--0-----|
C|-2-----------------------------------------------|-0-----------------------------------------------|
G|-------------------------------------------------|-------------------------------------------------|
D|-------------------------------------------------|-------------------------------------------------|

   Cmaj7/G                                           Asus2                   Bsus4
D|-------------------------------------------------|-------------------------------------------------|
A|-------0-----------------1--------0--------------|-------0-----------------1--------0--------------|
F|----------------2-----------------------2--0-----|----------------2--------------------------------|
C|-------------------------------------------------|-------------------------------------------------|
G|-3-----------------------------------------------|-0-----------------------2-----------------------|
D|-------------------------------------------------|-------------------------------------------------|

   Em                                                D6-9/F#
D|-------------------------------------------------|-------------------------------------------------|
A|-------0-----------------1--------0--------------|-------0-----------------1--------0--------------|
F|----------------2-----------------------2--0-----|----------------2-----------------------2--0-----|
C|-2-----------------------------------------------|-0-----------------------------------------------|
G|-------------------------------------------------|-------------------------------------------------|
D|-------------------------------------------------|-------------------------------------------------|

   Cmaj7/G                                           Asus2                   Bsus4
D|-------------------------------------------------|----------------------------------0--------------|
A|-------0-----------------1--------0--------------|-------0-----------------1-----------------------|
F|----------------2-----------------------2--0-----|----------------2--------------------------------|
C|-------------------------------------------------|-------------------------------------------------|
G|-3-----------------------------------------------|-0-----------------------2-----------------------|
D|-------------------------------------------------|-------------------------------------------------|


[Intro 1]
   Em                D        G                      Em                D        G
D|-------------------------------------------------|-------------------------------------------------|
A|-------------------------------------------------|-------------------------------------------------|
F|-------------------------------------------------|-------------------------------------------------|
C|----------9--9--9----------12-12-12-12-12-12-12--|----------9--9--9----------12-12-12-12-12-12-12--|
G|-2--2--2--7--7--7-12-12-12-10-10-10-10-10-10-10--|-2--2--2--7--7--7-12-12-12-10-10-10-10-10-10-10--|
D|-0--0--0----------10-10-10-----------------------|-0--0--0----------10-10-10-----------------------|

   Em                D        G                      Em                D        G
D|-------------------------------------------------|-------------------------------------------------|
A|-------------------------------------------------|-------------------------------------------------|
F|-------------------------------------------------|-------------------------------------------------|
C|----------9--9--9----------12-12-12-12-12-12-12--|----------9--9--9----------12-12-12-12-12-12-12--|
G|-2--2--2--7--7--7-12-12-12-10-10-10-10-10-10-10--|-2--2--2--7--7--7-12-12-12-10-10-10-10-10-10-10--|
D|-0--0--0----------10-10-10-----------------------|-0--0--0----------10-10-10-----------------------|



[Verse]
Em                   D6-9/F#
Mein Gefuhl musst du horen,
                       Cmaj9/G
die Worte mussen auf's Papier.
               Asus2
Die Feder, das Schwert
               Bsus4    Em
spiel'n in der Holle Klavier.

                    D6-9/F#
Besingen Laster und Tugend - 
                   Cmaj7/G
Die Stoffe uns'rer Jugend:
             Asus2
Heroisch bis klaglich,
    Bsus4
von episch bis alltaglich.


[Pre-Chorus]

A5           B5
Wir sind der faule Zahn
   C5            D5
in deinem weisen Lacheln


[Chorus] 
(Zum Chorus wird die Begleitung aus [Intro 2] gespielt)

Em        D6-9/F#
Wir leben! Wir leben! 
             Cmaj7/G
Nicht nur in Traumen und Ideen
          Asus2
Fur immer Onkelz!
Bsus4
Gott hat ein Problem
Em        D6-9/F#
Wir leben! Wir leben! 
             Cmaj7/G
Nicht nur in Traumen und Ideen
          Asus2
Fur immer Onkelz!
Bsus4
Gott hat ein Problem

[Intro 1]
   Em                D        G                      Em                D        G
D|-------------------------------------------------|-------------------------------------------------|
A|-------------------------------------------------|-------------------------------------------------|
F|-------------------------------------------------|-------------------------------------------------|
C|----------9--9--9----------12-12-12-12-12-12-12--|----------9--9--9----------12-12-12-12-12-12-12--|
G|-2--2--2--7--7--7-12-12-12-10-10-10-10-10-10-10--|-2--2--2--7--7--7-12-12-12-10-10-10-10-10-10-10--|
D|-0--0--0----------10-10-10-----------------------|-0--0--0----------10-10-10-----------------------|

   Em                D        G                      Em                D        G
D|-------------------------------------------------|-------------------------------------------------|
A|-------------------------------------------------|-------------------------------------------------|
F|-------------------------------------------------|-------------------------------------------------|
C|----------9--9--9----------12-12-12-12-12-12-12--|----------9--9--9----------12-12-12-12-12-12-12--|
G|-2--2--2--7--7--7-12-12-12-10-10-10-10-10-10-10--|-2--2--2--7--7--7-12-12-12-10-10-10-10-10-10-10--|
D|-0--0--0----------10-10-10-----------------------|-0--0--0----------10-10-10-----------------------|



[Verse]

Em                    D6-9/F#
Wir ham' das Ende uberlebt,
                  Cmaj9/G
das Jetzt vor den Augen
                   Asus2          Bsus4             Em
nichts beraubt uns        uns'rer Herkunft, uns'res Glaubens

                  D6-9/F#
Wir sind, wer wir sind
               Cmaj7/G
Nur so, wie du warst,
                     Asus2
hattest du nicht die Angst
       Bsus4
an der eigenen Brust genahrt.


[Pre-Chorus]

A5                    B5
Und was ist, wenn das Ende nichts
C5            D5
als ein boser Anfang ist?


[Chorus] 
(Zum Chorus wird die Begleitung aus [Intro 2] gespielt)

Em        D6-9/F#
Wir leben! Wir leben! 
             Cmaj7/G
Nicht nur in Traumen und Ideen
          Asus2
Fur immer Onkelz!
Bsus4
Gott hat ein Problem
Em        D6-9/F#
Wir leben! Wir leben! 
             Cmaj7/G
Nicht nur in Traumen und Ideen
          Asus2
Fur immer Onkelz!
Bsus4            
Gott hat ein Problem


[Bridge]
 
   Em                                                Em                D
D|-------------------------------------------------|-------------------------------------------------|
A|-------------------------------------------------|-------------------------------------------------|
F|-------------------------------------------------|-------------------------------------------------|
C|-------------------------------------------------|-------------------------------------------------|
G|-2-----------------------------------------------|-------------------5-----------------------------|
D|-0-----------------------------------------------|-0--0--0--0--0--0--------------------------------|
   
   Em                                                Em                G
D|-------------------------------------------------|-------------------------------------------------|
A|-------------------------------------------------|-------------------------------------------------|
F|-------------------------------------------------|-------------------------------------------------|
C|-------------------------------------------------|-------------------------------------------------|
G|-------------------------------------------------|------------------10-----------------------------|
D|-0--0--0--0--0--0--0-----------------------------|-0--0--0--0--0--0--------------------------------|


[Solo] 

   Em                                               D6-9/F#
D|-------------------------------------------------|10b12-10-----7-----------------------------------|
A|-------8----------10b12-----8--------------------|-------------------8-----------------------------|
F|/9-----------9-----------------------------------|----------------------------9--------------------|
C|-------------------------------------------------|-------------------------------------------------|
G|-------------------------------------------------|-------------------------------------------------|
D|-------------------------------------------------|-------------------------------------------------|
   
  Cmaj7/G                                           Asus2                   Bsus4
D|-------------------------------------------------|10b12-10-----7----10b12--------------------------|
A|-------8----------10b12-----8--------------------|-------------------------------------------------|
F|/9-----------9-----------------------------------|-------------------------------------------------|
C|-------------------------------------------------|-------------------------------------------------|
G|-------------------------------------------------|-------------------------------------------------|
D|-------------------------------------------------|-------------------------------------------------|

   Em                                               D6-9/F#
D|-------------------------------------------------|10b12-10-----7-----------------------------------|
A|-------8----------10b12-----8--------------------|-------------------8-----------------------------|
F|/9-----------9-----------------------------------|----------------------------9----(7)h9-p7--------|
C|-------------------------------------------------|-------------------------------------------9-----|
G|-------------------------------------------------|-------------------------------------------------|
D|-------------------------------------------------|-------------------------------------------------|
   
  Cmaj7/G                                           Asus2                   Bsus4
D|-------------------------------------------------|12pbr10-7---10----12-----------------------------|
A|-------8----------10b12-----8--------------------|-------------------------------------------------|
F|/9-----------9-----------------------------------|-------------------------------------------------|
C|-------------------------------------------------|-------------------------------------------------|
G|-------------------------------------------------|-------------------------------------------------|
D|-------------------------------------------------|-------------------------------------------------|




   Em                                               D6-9/F#
D|-------------------------------------------------|-------------------------------------------------|
A|15b17-------------15b17r15-15b17---------------15b17--15--12---------------------------------------|
F|-------------------------------------------------|------------14--12--14--16pbr14-12-14----12------|
C|-------------------------------------------------|-------------------------------------------------|
G|-------------------------------------------------|-------------------------------------------------|
D|-------------------------------------------------|-------------------------------------------------|
   
  Cmaj7/G                                           Asus2                   Bsus4
D|-?-----------------------------------------------|-?-----------------------------------------------|
A|-?---Diese beiden Takt konnte ich beim besten----|-?-----(Die Takte werden aber noch folgen)-------|
F|-?---Willen nicht raushoren. Spielt einfach was--|-?-----------------------------------------------|
C|-?---mit der E-Moll-Pentatonik. Fangt an im 12.--|-?-----------------------------------------------|
G|-?---Bd. und spielt euch runter bis in den 7-----|-?-----------------------------------------------|
D|-?-----------------------------------------------|-?-----------------------------------------------|

   Em                                               D6-9/F#
D|-------------------------------------------------|-------------------------------------------------|
A|-------------------------------------------------|-------------------------------------------------|
F|-9--------9--------9----11-------11-------11-----|12-------11-------12---/16----------14-----------|
C|-x--------x--------x-----x--------x--------x-----|-x--------x--------x-----x-----------x-----------|
G|-7--------7--------7-----9--------9--------9-----|10--------9-------10---/14----------12-----------|
D|-------------------------------------------------|-------------------------------------------------|
   
  Cmaj7/G                                           Asus2                   Bsus4
D|-----------------------------------------------17b19--17--15--14-----------------------------------|-----|
A|------------15-12--------------------------------|----------------17--15---------------------------|-----|
F|14b16-------------14p12---14-12----12------------|-------------------------------------------------|-14--|
C|-----------------------14-------14---------------|-------------------------------------------------|-----|
G|-------------------------------------------------|-----------------------14--15--14--12--10--------|-----|
D|-------------------------------------------------|-------------------------------------------10----|-----|


[Pre-Chorus]

A5           B5
Wir sind der faule Zahn
   C5            D5
in deinem weisen Lacheln


[Chorus] 
(Zum Chorus wird die Begleitung aus [Intro 2] gespielt)

Em        D6-9/F#
Wir leben! Wir leben! 
             Cmaj7/G
Nicht nur in Traumen und Ideen
          Asus2
Fur immer Onkelz!
Bsus4
Gott hat ein Problem

Em        D6-9/F#
Wir leben! Wir leben! 
             Cmaj7/G
Nicht nur in Traumen und Ideen
          Asus2
Fur immer Onkelz!
Bsus4
Gott hat ein Problem

Em        D6-9/F#
Wir leben! Wir leben! 
             Cmaj7/G
Nicht nur in Traumen und Ideen
          Asus2
Fur immer Onkelz!
Bsus4
Gott hat ein Problem


[Outro]

   Em                                                D6-9/F#
D|-------------------------------------------------|-------------------------------------------------|
A|-------0-----------------1--------0--------------|-------0-----------------1--------0--------------|
F|----------------2-----------------------2--0-----|----------------2-----------------------2--0-----|
C|-2-----------------------------------------------|-0-----------------------------------------------|
G|-------------------------------------------------|-------------------------------------------------|
D|-------------------------------------------------|-------------------------------------------------|

   Cmaj7/G                                           Asus2                   Bsus4
D|-------------------------------------------------|-------------------------------------------------|
A|-------0-----------------1--------0--------------|-------0-----------------1--------0--------------|
F|----------------2-----------------------2--0-----|----------------2--------------------------------|
C|-------------------------------------------------|-------------------------------------------------|
G|-3-----------------------------------------------|-0-----------------------2-----------------------|
D|-------------------------------------------------|-------------------------------------------------|

   Em                                                Em                D
D|-------------------------------------------------|-------------------------------------------------|
A|-------------------------------------------------|-------------------------------------------------|
F|-------------------------------------------------|-------------------------------------------------|
C|-------------------9-----------------------------|-------------------7-----------------------------|
G|-------------------7-----------------------------|-------------------5-----------------------------|
D|-0--0--0--0--0--0--0-----------------------------|-0--0--0--0--0--0--------------------------------|


   Em                G                              Em                
D|-------------------------------------------------|-------------------------------------------------|
A|-------------------------------------------------|-------------------------------------------------|
F|-------------------------------------------------|-------------------------------------------------|
C|------------------12-----------------------------|-------------------------------------------------|
G|------------------10-----------------------------|-------------------------------------------------|
D|-0--0--0--0--0--0--0-----------------------------|-0--0--0--0--0--0--0-----------------------------|







            
Submit corrections

↑ Back to top | Tablatures and chords for acoustic guitar and electric guitar, ukulele, drums are parodies/interpretations of the original songs. You may use it for private study, scholarship, research or language learning purposes only