» » »

BöHse Onkelz - FußBall Und Gewalt Tabs

Artists:  A B C D E F G H I J K L M N O P Q R S T U V W X Y Z # 

FußBall Und Gewalt Tabs

(ver. 1) Click to play this song!
BöHse Onkelz
 Rating:
4/5 (4 votes)
                INTRO:
e ---------------------------------------------------
B ---------------------------------------------------
G --5-5--6-6--8-8--5---/10--10--11-11--13-13--10-----
D --6-6--6-6--6-6--6---/11--11--11-11--11-11--11-----
A ---------------------------------------------------
E ---------------------------------------------------

e ---------------------------------------------------
B ---------------------------------------------------
G --/13--12-12-12-12-12-12---13--12-12-12-12-12-12---
D --/13--13-13-13-13-13-13---13--13-13-13-12-13-13---
A ---------------------------------------------------
E ---------------------------------------------------



VERSE:
e ---------------------------------------------------
B ---------------------------------------------------
G --13--13-13--13-13-13---6--6-6--6-6-6---8-8-8-8----
D --13--13-13--13-13-13---6--6-6--6-6-6---8-8-8-8----
A --11--11-11--11-11-11---4--4-4--4-4-4---6-6-6-6----
E ---------------------------------------------------

e ---------------------------------------------------
B ---------------------------------------------------
G --8-8-8----8-8-8-8----8-8-8------------------------
D --8-8-8----8-8-8-8----8-8-8------------------------
A --6-6-6----6-6-6-6----6-6-6------------------------
E ---------------------------------------------------



RIFF 1:
e ---------------------------------------------------
B ----------------------------------------9-9-8-8----
G --10101010-101010--6-6-6-6--6-6-6---10----------8--
D --10101010-101010--6-6-6-6--6-6-6---10-------------
A --8-8-8-8--8-8-8---4-4-4-4--4-4-4---8--------------
E ---------------------------------------------------




RIFF 2:
e ---------------------------------------------------
B ---------------------------------------------------
G --6-6-6-6-6-6-6-6--8-8-8-8--8-8-8--6-6-6-6-6-6-6-6-
D --6-6-6-6-6-6-6-6--8-8-8-8--8-8-8--6-6-6-6-6-6-6-6-
A --4-4-4-4-4-4-4-4--6-6-6-6--6-6-6--4-4-4-4-4-4-4-4-
E ---------------------------------------------------

e ---------------------------------------------------
B ---------------------------------------------------
G --6-x-x-6-x-6-------6-6-6---------8-8-8------------
D --6-x-x-6-x-6-------6-6-6-usw.----8-8-8-usw.-------
A --4-x-x-4-x-4-------4-4-4---------6-6-6------------
E ---------------------------------------------------


INTRO
VERSE
RIFF 1
RIFF 2
VERSE
RIFF 1
RIFF 2
SOLO
VERSE
RIFF 1
RIFF 2



Das Solo kommt noch, hatte jetzt keine Zeit und keinen Bock

aber ihr könnt es euch auch selbst raushören, es ist nicht

schwer! 

(Wenn ihr eure Gitarre normal gestimmt habt, wird es sich ein

 bisschen schräg anhören, weil Gonzo seine Gitarre auf dieser

 CD (der nette Mann) nicht ganz richtig gestimmt hat!!!)
            
Submit corrections

↑ Back to top | Tablatures and chords for acoustic guitar and electric guitar, ukulele, drums are parodies/interpretations of the original songs. You may use it for private study, scholarship, research or language learning purposes only