Home » B » BöHse Onkelz »

BöHse Onkelz - Freibier Tabs

Artists:  A B C D E F G H I J K L M N O P Q R S T U V W X Y Z # 

Freibier Tabs

(ver. 1) Click to play this song!
BöHse Onkelz
[Intro + Verse] 
  (6x)
e|---------------------------------------------------------------------------|
B|---------------------------------------------------------------------------|
G|-----------------6-6-6-6-6-6-6-6-4-4-4-4-4-4-4-4---7-7-7--6-6-6------------|
D|-7-7-7-7-7-7-7-7-6-6-6-6-6-6-6-6-4-4-4-4-4-4-4-4---7-7-7--6-6-6------------|
A|-7-7-7-7-7-7-7-7-4-4-4-4-4-4-4-4-2-2-2-2-2-2-2-2---5-5-5--4-4-4------------|
E|-5-5-5-5-5-5-5-5-----------------------------------------------------------|

[Chorus]
  "Stell dir vor..."            "Hunderte von Litern..."       "Dort sind sie lustig..."
e|---------------------------------------------------------------------------------------------|
B|---------------------------------------------------------------------------------------------|
G|-----4-4-----4-4--7-6---7-6----6-6-6-6-6-6-6-6-6-6-6-6-6-6-6-4-4-4-4-4-4-4-4-4-4-4-4-4-4-4-4-|
D|-7-7-----7-7----------7-----7--6-6-6-6-6-6-6-6-6-6-6-6-6-6-6-4-4-4-4-4-4-4-4-4-4-4-4-4-4-4-4-|
A|-------------------------------4-4-4-4-4-4-4-4-4-4-4-4-4-4-4-2-2-2-2-2-2-2-2-2-2-2-2-2-2-2-2-|
E|---------------------------------------------------------------------------------------------|

e|---------------------------------------------------------------------------|
B|---------------------------------------------------------------------------|
G|-4-6-7-9-9-9-7/9-9-9-7/9-9-9-----------------------------------------------|
D|-4-6-7-9-9-9-7/9-9-9-7/9-9-9-----------------------------------------------|
A|-2-4-5-7-7-7-5/7-7-7-5/7-7-7-----------------------------------------------|
E|---------------------------------------------------------------------------|

  "Stell dir vor..."            "Hunderte von Litern..."       "Dort sind sie lustig..."
e|---------------------------------------------------------------------------------------------|
B|---------------------------------------------------------------------------------------------|
G|-----4-4-----4-4--7-6---7-6----6-6-6-6-6-6-6-6-6-6-6-6-6-6-6-4-4-4-4-4-4-4-4-4-4-4-4-4-4-4-4-|
D|-7-7-----7-7----------7-----7--6-6-6-6-6-6-6-6-6-6-6-6-6-6-6-4-4-4-4-4-4-4-4-4-4-4-4-4-4-4-4-|
A|-------------------------------4-4-4-4-4-4-4-4-4-4-4-4-4-4-4-2-2-2-2-2-2-2-2-2-2-2-2-2-2-2-2-|
E|---------------------------------------------------------------------------------------------|

e|---------------------------------------------------------------------------|
B|---------------------------------------------------------------------------|
G|-4-6-7----------------9-9-9-9-9-9------------------------------------------|
D|-4-6-7-7-7-7-7-7-7-7--9-9-9-9-9-9------------------------------------------|
A|-2-4-5-7-7-7-7-7-7-7--7-7-7-7-7-7------------------------------------------|
E|-------5-5-5-5-5-5-5-------------------------------------------------------|

[Verse 2] 
  (4x)
e|---------------------------------------------------------------------------|
B|---------------------------------------------------------------------------|
G|-----------------6-6-6-6-6-6-6-6-4-4-4-4-4-4-4-4---7-7-7--6-6-6------------|
D|-7-7-7-7-7-7-7-7-6-6-6-6-6-6-6-6-4-4-4-4-4-4-4-4---7-7-7--6-6-6------------|
A|-7-7-7-7-7-7-7-7-4-4-4-4-4-4-4-4-2-2-2-2-2-2-2-2---5-5-5--4-4-4------------|
E|-5-5-5-5-5-5-5-5-----------------------------------------------------------|

[Chorus]
  "Stell dir vor..."            "Hunderte von Litern..."       "Dort sind sie lustig..."
e|---------------------------------------------------------------------------------------------|
B|---------------------------------------------------------------------------------------------|
G|-----4-4-----4-4--7-6---7-6----6-6-6-6-6-6-6-6-6-6-6-6-6-6-6-4-4-4-4-4-4-4-4-4-4-4-4-4-4-4-4-|
D|-7-7-----7-7----------7-----7--6-6-6-6-6-6-6-6-6-6-6-6-6-6-6-4-4-4-4-4-4-4-4-4-4-4-4-4-4-4-4-|
A|-------------------------------4-4-4-4-4-4-4-4-4-4-4-4-4-4-4-2-2-2-2-2-2-2-2-2-2-2-2-2-2-2-2-|
E|---------------------------------------------------------------------------------------------|

e|---------------------------------------------------------------------------|
B|---------------------------------------------------------------------------|
G|-4-6-7-9-9-9-7/9-9-9-7/9-9-9-----------------------------------------------|
D|-4-6-7-9-9-9-7/9-9-9-7/9-9-9-----------------------------------------------|
A|-2-4-5-7-7-7-5/7-7-7-5/7-7-7-----------------------------------------------|
E|---------------------------------------------------------------------------|

  "Stell dir vor..."            "Hunderte von Litern..."       "Dort sind sie lustig..."
e|---------------------------------------------------------------------------------------------|
B|---------------------------------------------------------------------------------------------|
G|-----4-4-----4-4--7-6---7-6----6-6-6-6-6-6-6-6-6-6-6-6-6-6-6-4-4-4-4-4-4-4-4-4-4-4-4-4-4-4-4-|
D|-7-7-----7-7----------7-----7--6-6-6-6-6-6-6-6-6-6-6-6-6-6-6-4-4-4-4-4-4-4-4-4-4-4-4-4-4-4-4-|
A|-------------------------------4-4-4-4-4-4-4-4-4-4-4-4-4-4-4-2-2-2-2-2-2-2-2-2-2-2-2-2-2-2-2-|
E|---------------------------------------------------------------------------------------------|

e|---------------------------------------------------------------------------|
B|---------------------------------------------------------------------------|
G|-4-6-7----------------9-9-9-9-9-9------------------------------------------|
D|-4-6-7-7-7-7-7-7-7-7--9-9-9-9-9-9------------------------------------------|
A|-2-4-5-7-7-7-7-7-7-7--7-7-7-7-7-7------------------------------------------|
E|-------5-5-5-5-5-5-5-------------------------------------------------------|

[Guitar Solo]
  (2x)
e|---------------------------------------------------------------------------|
B|-10-13-12-10---------------------------------------------------------------|
G|-------------6-9-7-6--4-7-6-4----------------------------------------------|
D|-------------------------------7-5-----------------------------------------|
A|-----------------------------------7-5-4-5---------------------------------|
E|-------------------------------------------5-------------------------------|
  
e|-------------------------------------------------------------------------------------------------------|
B|-------------------------------------------------------------------------------------------------------|
G|------------2-4-4b6-4b6-4b6-4b6-4b6-4b6br-2--4-2---4-2---2-----------2-2---2---2-4b6br-2---2--/12/14---|
D|-------5-7---------------------------------------4-----4---4-2--/2-4-----4---4-----------4-------------|
A|---5-7-------------------------------------------------------------------------------------------------|
E|-5-----------------------------------------------------------------------------------------------------|

[Chorus]
  "Stell dir vor..."            "Hunderte von Litern..."       "Dort sind sie lustig..."
e|---------------------------------------------------------------------------------------------|
B|---------------------------------------------------------------------------------------------|
G|-----4-4-----4-4--7-6---7-6----6-6-6-6-6-6-6-6-6-6-6-6-6-6-6-4-4-4-4-4-4-4-4-4-4-4-4-4-4-4-4-|
D|-7-7-----7-7----------7-----7--6-6-6-6-6-6-6-6-6-6-6-6-6-6-6-4-4-4-4-4-4-4-4-4-4-4-4-4-4-4-4-|
A|-------------------------------4-4-4-4-4-4-4-4-4-4-4-4-4-4-4-2-2-2-2-2-2-2-2-2-2-2-2-2-2-2-2-|
E|---------------------------------------------------------------------------------------------|

e|---------------------------------------------------------------------------|
B|---------------------------------------------------------------------------|
G|-4-6-7-9-9-9-7/9-9-9-7/9-9-9-----------------------------------------------|
D|-4-6-7-9-9-9-7/9-9-9-7/9-9-9-----------------------------------------------|
A|-2-4-5-7-7-7-5/7-7-7-5/7-7-7-----------------------------------------------|
E|---------------------------------------------------------------------------|

  "Stell dir vor..."            "Hunderte von Litern..."       "Dort sind sie lustig..."
e|---------------------------------------------------------------------------------------------|
B|---------------------------------------------------------------------------------------------|
G|-----4-4-----4-4--7-6---7-6----6-6-6-6-6-6-6-6-6-6-6-6-6-6-6-4-4-4-4-4-4-4-4-4-4-4-4-4-4-4-4-|
D|-7-7-----7-7----------7-----7--6-6-6-6-6-6-6-6-6-6-6-6-6-6-6-4-4-4-4-4-4-4-4-4-4-4-4-4-4-4-4-|
A|-------------------------------4-4-4-4-4-4-4-4-4-4-4-4-4-4-4-2-2-2-2-2-2-2-2-2-2-2-2-2-2-2-2-|
E|---------------------------------------------------------------------------------------------|

e|---------------------------------------------------------------------------|
B|---------------------------------------------------------------------------|
G|-4-6-7----------------9-9-9-9-9-9------------------------------------------|
D|-4-6-7-7-7-7-7-7-7-7--9-9-9-9-9-9------------------------------------------|
A|-2-4-5-7-7-7-7-7-7-7--7-7-7-7-7-7------------------------------------------|
E|-------5-5-5-5-5-5-5-------------------------------------------------------|

[Verse 3] 
  (4x)
e|---------------------------------------------------------------------------|
B|---------------------------------------------------------------------------|
G|-----------------6-6-6-6-6-6-6-6-4-4-4-4-4-4-4-4---7-7-7--6-6-6------------|
D|-7-7-7-7-7-7-7-7-6-6-6-6-6-6-6-6-4-4-4-4-4-4-4-4---7-7-7--6-6-6------------|
A|-7-7-7-7-7-7-7-7-4-4-4-4-4-4-4-4-2-2-2-2-2-2-2-2---5-5-5--4-4-4------------|
E|-5-5-5-5-5-5-5-5-----------------------------------------------------------|

[Chorus]
  "Stell dir vor..."            "Hunderte von Litern..."       "Dort sind sie lustig..."
e|---------------------------------------------------------------------------------------------|
B|---------------------------------------------------------------------------------------------|
G|-----4-4-----4-4--7-6---7-6----6-6-6-6-6-6-6-6-6-6-6-6-6-6-6-4-4-4-4-4-4-4-4-4-4-4-4-4-4-4-4-|
D|-7-7-----7-7----------7-----7--6-6-6-6-6-6-6-6-6-6-6-6-6-6-6-4-4-4-4-4-4-4-4-4-4-4-4-4-4-4-4-|
A|-------------------------------4-4-4-4-4-4-4-4-4-4-4-4-4-4-4-2-2-2-2-2-2-2-2-2-2-2-2-2-2-2-2-|
E|---------------------------------------------------------------------------------------------|

e|---------------------------------------------------------------------------|
B|---------------------------------------------------------------------------|
G|-4-6-7-9-9-9-7/9-9-9-7/9-9-9-----------------------------------------------|
D|-4-6-7-9-9-9-7/9-9-9-7/9-9-9-----------------------------------------------|
A|-2-4-5-7-7-7-5/7-7-7-5/7-7-7-----------------------------------------------|
E|---------------------------------------------------------------------------|

  "Stell dir vor..."            "Hunderte von Litern..."       "Dort sind sie lustig..."
e|---------------------------------------------------------------------------------------------|
B|---------------------------------------------------------------------------------------------|
G|-----4-4-----4-4--7-6---7-6----6-6-6-6-6-6-6-6-6-6-6-6-6-6-6-4-4-4-4-4-4-4-4-4-4-4-4-4-4-4-4-|
D|-7-7-----7-7----------7-----7--6-6-6-6-6-6-6-6-6-6-6-6-6-6-6-4-4-4-4-4-4-4-4-4-4-4-4-4-4-4-4-|
A|-------------------------------4-4-4-4-4-4-4-4-4-4-4-4-4-4-4-2-2-2-2-2-2-2-2-2-2-2-2-2-2-2-2-|
E|---------------------------------------------------------------------------------------------|

e|---------|
B|---------|
G|-4-6-7---|
D|-4-6-7-7-|
A|-2-4-5-7-|
E|-------5-|            
Submit corrections

↑ Back to top | Tablatures and chords for acoustic guitar and electric guitar, ukulele, drums are parodies/interpretations of the original songs. You may use it for private study, scholarship, research or language learning purposes only