Home » B » BöHse Onkelz »

BöHse Onkelz - Flammen Tabs

Artists:  A B C D E F G H I J K L M N O P Q R S T U V W X Y Z # 

Flammen Tabs

(ver. 1) Click to play this song!
BöHse Onkelz
[Intro]
e|-----------------|-----------------|----------------|-----------------|
B|-----------------|-----------------|----------------|-----------------| x2
G|-----------7-x---|-----------------|----------7-x---|-9---7-----------|
D|-----------7-x---|-----------7-x---|----------7-x---|-9---7---9-x-----|
A|-----------5-x---|-----------7-x---|----------5-x---|-7---5---9-x-----|
E|-----------------|-----------5-x---|----------------|---------7-x-----|
 
[Interlude]
e|-----------------|-----------------|-----------------|-----------------|
B|-----------------|-----------------|-----------------|-----------------| x2
G|-------------7---|-----------------|-------------7---|-9---7-----------|
D|-9-9-9-9-9---7---|-9-9-9-9-9---7---|-9-9-9-9-9---7---|-9---7---9---x---|
A|-9-9-9-9-9---5---|-9-9-9-9-9---7---|-9-9-9-9-9---5---|-7---5---9---x---|
E|-7-7-7-7-7-------|-7-7-7-7-7---5---|-7-7-7-7-7-------|---------7---x---|
 
[Verse]
e|-----------------|-----------------|-----------------|-----------------|
B|-----------------|-----------------|-----------------|-----------------| x3
G|-----------------|-----------------|-----------------|-----------------|
D|-9-9-9-9-9-9-9-9-|-7-7-7-7-7-7-7-7-|-5-5-5-5-5-5-5-5-|-7-7-7-7-7-7-7-7-|
A|-9-9-9-9-9-9-9-9-|-7-7-7-7-7-7-7-7-|-5-5-5-5-5-5-5-5-|-7-7-7-7-7-7-7-7-|
E|-7-7-7-7-7-7-7-7-|-5-5-5-5-5-5-5-5-|-3-3-3-3-3-3-3-3-|-5-5-5-5-5-5-5-5-|
 
e|-----------------|-----------------|-----------------|-----------------|-----------------|----------------|
B|-----------------|-----------------|-----------------|-----------------|-----------------|----------------|
G|-----------------|-----------------|-----------------|-----------------|-----------------|----------------|
D|-9-9-9-9-9-9-9-9-|-7-7-7-7-7-7-7-7-|-5-5-5-5-5-5-5-5-|-5-5-5-5-5-5-5-5-|-7-7-7-7-7-7-7-7-|-7-7-7-7-7------|
A|-9-9-9-9-9-9-9-9-|-7-7-7-7-7-7-7-7-|-5-5-5-5-5-5-5-5-|-5-5-5-5-5-5-5-5-|-7-7-7-7-7-7-7-7-|-7-7-7-7-7------|
E|-7-7-7-7-7-7-7-7-|-5-5-5-5-5-5-5-5-|-3-3-3-3-3-3-3-3-|-3-3-3-3-3-3-3-3-|-5-5-5-5-5-5-5-5-|-5-5-5-5-5------|
 
[Interlude]
e|-----------------|-----------------|-----------------|-----------------|
B|-----------------|-----------------|-----------------|-----------------| x2
G|-------------7---|-----------------|-------------7---|-9---7-----------|
D|-9-9-9-9-9---7---|-9-9-9-9-9---7---|-9-9-9-9-9---7---|-9---7---9---x---|
A|-9-9-9-9-9---5---|-9-9-9-9-9---7---|-9-9-9-9-9---5---|-7---5---9---x---|
E|-7-7-7-7-7-------|-7-7-7-7-7---5---|-7-7-7-7-7-------|---------7---x---|
 
[Chorus]
e|-----------------|-----------------|-----------------|-----------------|
B|-----------------|-----------------|-----------------|-----------------| x3
G|-----------------|-----------------|-----------------|-----------------|
D|-9-9-9-9-9-9-9-9-|-2-2-2-2-2-2-2-2-|-5-5-5-5-5-5-5-5-|-7-7-7-7-7-7-7-7-|
A|-9-9-9-9-9-9-9-9-|-2-2-2-2-2-2-2-2-|-5-5-5-5-5-5-5-5-|-7-7-7-7-7-7-7-7-|
E|-7-7-7-7-7-7-7-7-|-0-0-0-0-0-0-0-0-|-3-3-3-3-3-3-3-3-|-5-5-5-5-5-5-5-5-|
 
e|-----------------|-----------------|-----------------|-----------------|-----------------|----------------|
B|-----------------|-----------------|-----------------|-----------------|-----------------|----------------|
G|-----------------|-----------------|-----------------|-----------------|-----------------|----------------|
D|-9-9-9-9-9-9-9-9-|-2-2-2-2-2-2-2-2-|-5-5-5-5-5-5-5-5-|-5-5-5-5-5-5-5-5-|-7-7-7-7-7-7-7-7-|-7-7-7-7-7------|
A|-9-9-9-9-9-9-9-9-|-2-2-2-2-2-2-2-2-|-5-5-5-5-5-5-5-5-|-5-5-5-5-5-5-5-5-|-7-7-7-7-7-7-7-7-|-7-7-7-7-7------|
E|-7-7-7-7-7-7-7-7-|-0-0-0-0-0-0-0-0-|-3-3-3-3-3-3-3-3-|-3-3-3-3-3-3-3-3-|-5-5-5-5-5-5-5-5-|-5-5-5-5-5------|
 
[Interlude]
e|-----------------|-----------------|-----------------|-----------------|
B|-----------------|-----------------|-----------------|-----------------| x2
G|-------------7---|-----------------|-------------7---|-9---7-----------|
D|-9-9-9-9-9---7---|-9-9-9-9-9---7---|-9-9-9-9-9---7---|-9---7---9---x---|
A|-9-9-9-9-9---5---|-9-9-9-9-9---7---|-9-9-9-9-9---5---|-7---5---9---x---|
E|-7-7-7-7-7-------|-7-7-7-7-7---5---|-7-7-7-7-7-------|---------7---x---| 
 
[Verse]
e|-----------------|-----------------|-----------------|-----------------|
B|-----------------|-----------------|-----------------|-----------------| x3
G|-----------------|-----------------|-----------------|-----------------|
D|-9-9-9-9-9-9-9-9-|-7-7-7-7-7-7-7-7-|-5-5-5-5-5-5-5-5-|-7-7-7-7-7-7-7-7-|
A|-9-9-9-9-9-9-9-9-|-7-7-7-7-7-7-7-7-|-5-5-5-5-5-5-5-5-|-7-7-7-7-7-7-7-7-|
E|-7-7-7-7-7-7-7-7-|-5-5-5-5-5-5-5-5-|-3-3-3-3-3-3-3-3-|-5-5-5-5-5-5-5-5-|
 
e|-----------------|-----------------|-----------------|-----------------|-----------------|----------------|
B|-----------------|-----------------|-----------------|-----------------|-----------------|----------------|
G|-----------------|-----------------|-----------------|-----------------|-----------------|----------------|
D|-9-9-9-9-9-9-9-9-|-7-7-7-7-7-7-7-7-|-5-5-5-5-5-5-5-5-|-5-5-5-5-5-5-5-5-|-7-7-7-7-7-7-7-7-|-7-7-7-7-7------|
A|-9-9-9-9-9-9-9-9-|-7-7-7-7-7-7-7-7-|-5-5-5-5-5-5-5-5-|-5-5-5-5-5-5-5-5-|-7-7-7-7-7-7-7-7-|-7-7-7-7-7------|
E|-7-7-7-7-7-7-7-7-|-5-5-5-5-5-5-5-5-|-3-3-3-3-3-3-3-3-|-3-3-3-3-3-3-3-3-|-5-5-5-5-5-5-5-5-|-5-5-5-5-5------|
 
[Interlude]
e|-----------------|-----------------|-----------------|-----------------|
B|-----------------|-----------------|-----------------|-----------------| x2
G|-------------7---|-----------------|-------------7---|-9---7-----------|
D|-9-9-9-9-9---7---|-9-9-9-9-9---7---|-9-9-9-9-9---7---|-9---7---9---x---|
A|-9-9-9-9-9---5---|-9-9-9-9-9---7---|-9-9-9-9-9---5---|-7---5---9---x---|
E|-7-7-7-7-7-------|-7-7-7-7-7---5---|-7-7-7-7-7-------|---------7---x---| 
 
[Chorus]
e|-----------------|-----------------|-----------------|-----------------|
B|-----------------|-----------------|-----------------|-----------------| x3
G|-----------------|-----------------|-----------------|-----------------|
D|-9-9-9-9-9-9-9-9-|-2-2-2-2-2-2-2-2-|-5-5-5-5-5-5-5-5-|-7-7-7-7-7-7-7-7-|
A|-9-9-9-9-9-9-9-9-|-2-2-2-2-2-2-2-2-|-5-5-5-5-5-5-5-5-|-7-7-7-7-7-7-7-7-|
E|-7-7-7-7-7-7-7-7-|-0-0-0-0-0-0-0-0-|-3-3-3-3-3-3-3-3-|-5-5-5-5-5-5-5-5-|
 
e|-----------------|-----------------|-----------------|-----------------|-----------------|----------------|
B|-----------------|-----------------|-----------------|-----------------|-----------------|----------------|
G|-----------------|-----------------|-----------------|-----------------|-----------------|----------------|
D|-9-9-9-9-9-9-9-9-|-2-2-2-2-2-2-2-2-|-5-5-5-5-5-5-5-5-|-5-5-5-5-5-5-5-5-|-7-7-7-7-7-7-7-7-|-7-7-7-7-7------|
A|-9-9-9-9-9-9-9-9-|-2-2-2-2-2-2-2-2-|-5-5-5-5-5-5-5-5-|-5-5-5-5-5-5-5-5-|-7-7-7-7-7-7-7-7-|-7-7-7-7-7------|
E|-7-7-7-7-7-7-7-7-|-0-0-0-0-0-0-0-0-|-3-3-3-3-3-3-3-3-|-3-3-3-3-3-3-3-3-|-5-5-5-5-5-5-5-5-|-5-5-5-5-5------|
 
[Interlude]
e|-----------------|-----------------|-----------------|-----------------|
B|-----------------|-----------------|-----------------|-----------------| x4
G|-------------7---|-----------------|-------------7---|-9---7-----------|
D|-9-9-9-9-9---7---|-9-9-9-9-9---7---|-9-9-9-9-9---7---|-9---7---9---x---|
A|-9-9-9-9-9---5---|-9-9-9-9-9---7---|-9-9-9-9-9---5---|-7---5---9---x---|
E|-7-7-7-7-7-------|-7-7-7-7-7---5---|-7-7-7-7-7-------|---------7---x---|
 
[Solo]
e|-----------------|-----------------|-----------------|-----------------|
B|-----------------|-----------------|-----------------|-----------------| x4
G|-----------------|-----------------|-7-7-7-7-7-7-7-7-|-----------------|
D|-9-9-9-9-9-9-9-9-|-5-5-5-5-5-5-5-5-|-7-7-7-7-7-7-7-7-|-7-7-7-7-7-7-7-7-|
A|-9-9-9-9-9-9-9-9-|-5-5-5-5-5-5-5-5-|-5-5-5-5-5-5-5-5-|-7-7-7-7-7-7-7-7-|
E|-7-7-7-7-7-7-7-7-|-3-3-3-3-3-3-3-3-|-----------------|-5-5-5-5-5-5-5-5-|
 
[Verse]
e|-----------------|-----------------|-----------------|-----------------|
B|-----------------|-----------------|-----------------|-----------------| x3
G|-----------------|-----------------|-----------------|-----------------|
D|-9-9-9-9-9-9-9-9-|-7-7-7-7-7-7-7-7-|-5-5-5-5-5-5-5-5-|-7-7-7-7-7-7-7-7-|
A|-9-9-9-9-9-9-9-9-|-7-7-7-7-7-7-7-7-|-5-5-5-5-5-5-5-5-|-7-7-7-7-7-7-7-7-|
E|-7-7-7-7-7-7-7-7-|-5-5-5-5-5-5-5-5-|-3-3-3-3-3-3-3-3-|-5-5-5-5-5-5-5-5-|
 
e|-----------------|-----------------|-----------------|-----------------|-----------------|----------------|
B|-----------------|-----------------|-----------------|-----------------|-----------------|----------------|
G|-----------------|-----------------|-----------------|-----------------|-----------------|----------------|
D|-9-9-9-9-9-9-9-9-|-7-7-7-7-7-7-7-7-|-5-5-5-5-5-5-5-5-|-5-5-5-5-5-5-5-5-|-7-7-7-7-7-7-7-7-|-7-7-7-7-7------|
A|-9-9-9-9-9-9-9-9-|-7-7-7-7-7-7-7-7-|-5-5-5-5-5-5-5-5-|-5-5-5-5-5-5-5-5-|-7-7-7-7-7-7-7-7-|-7-7-7-7-7------|
E|-7-7-7-7-7-7-7-7-|-5-5-5-5-5-5-5-5-|-3-3-3-3-3-3-3-3-|-3-3-3-3-3-3-3-3-|-5-5-5-5-5-5-5-5-|-5-5-5-5-5------|
 
[Interlude]
e|-----------------|-----------------|-----------------|-----------------|
B|-----------------|-----------------|-----------------|-----------------| x2
G|-------------7---|-----------------|-------------7---|-9---7-----------|
D|-9-9-9-9-9---7---|-9-9-9-9-9---7---|-9-9-9-9-9---7---|-9---7---9---x---|
A|-9-9-9-9-9---5---|-9-9-9-9-9---7---|-9-9-9-9-9---5---|-7---5---9---x---|
E|-7-7-7-7-7-------|-7-7-7-7-7---5---|-7-7-7-7-7-------|---------7---x---| 
 
[Chorus]
e|-----------------|-----------------|-----------------|-----------------|
B|-----------------|-----------------|-----------------|-----------------| x3
G|-----------------|-----------------|-----------------|-----------------|
D|-9-9-9-9-9-9-9-9-|-2-2-2-2-2-2-2-2-|-5-5-5-5-5-5-5-5-|-7-7-7-7-7-7-7-7-|
A|-9-9-9-9-9-9-9-9-|-2-2-2-2-2-2-2-2-|-5-5-5-5-5-5-5-5-|-7-7-7-7-7-7-7-7-|
E|-7-7-7-7-7-7-7-7-|-0-0-0-0-0-0-0-0-|-3-3-3-3-3-3-3-3-|-5-5-5-5-5-5-5-5-|
 
e|-----------------|-----------------|-----------------|-----------------|-----------------|-----------------|
B|-----------------|-----------------|-----------------|-----------------|-----------------|-----------------|
G|-----------------|-----------------|-----------------|-----------------|-----------------|-----------------|
D|-9-9-9-9-9-9-9-9-|-2-2-2-2-2-2-2-2-|-5-5-5-5-5-5-5-5-|-5-5-5-5-5-5-5-5-|-7-7-7-7-7-7-7-7-|-7-7-7-7-7-7-7-7-|
A|-9-9-9-9-9-9-9-9-|-2-2-2-2-2-2-2-2-|-5-5-5-5-5-5-5-5-|-5-5-5-5-5-5-5-5-|-7-7-7-7-7-7-7-7-|-7-7-7-7-7-7-7-7-|
E|-7-7-7-7-7-7-7-7-|-0-0-0-0-0-0-0-0-|-3-3-3-3-3-3-3-3-|-3-3-3-3-3-3-3-3-|-5-5-5-5-5-5-5-5-|-5-5-5-5-5-5-5-5-|
 
e|-----------------|-----------------|-----------------|-----------------|
B|-----------------|-----------------|-----------------|-----------------| x3
G|-----------------|-----------------|-----------------|-----------------|
D|-9-9-9-9-9-9-9-9-|-2-2-2-2-2-2-2-2-|-5-5-5-5-5-5-5-5-|-7-7-7-7-7-7-7-7-|
A|-9-9-9-9-9-9-9-9-|-2-2-2-2-2-2-2-2-|-5-5-5-5-5-5-5-5-|-7-7-7-7-7-7-7-7-|
E|-7-7-7-7-7-7-7-7-|-0-0-0-0-0-0-0-0-|-3-3-3-3-3-3-3-3-|-5-5-5-5-5-5-5-5-|
 
e|-----------------|-----------------|-----------------|-----------------|-----------------|----------------|
B|-----------------|-----------------|-----------------|-----------------|-----------------|----------------|
G|-----------------|-----------------|-----------------|-----------------|-----------------|----------------|
D|-9-9-9-9-9-9-9-9-|-2-2-2-2-2-2-2-2-|-5-5-5-5-5-5-5-5-|-5-5-5-5-5-5-5-5-|-7-7-7-7-7-7-7-7-|-7-7-7-7-7------|
A|-9-9-9-9-9-9-9-9-|-2-2-2-2-2-2-2-2-|-5-5-5-5-5-5-5-5-|-5-5-5-5-5-5-5-5-|-7-7-7-7-7-7-7-7-|-7-7-7-7-7------|
E|-7-7-7-7-7-7-7-7-|-0-0-0-0-0-0-0-0-|-3-3-3-3-3-3-3-3-|-3-3-3-3-3-3-3-3-|-5-5-5-5-5-5-5-5-|-5-5-5-5-5------|
 
[Outro]
e|-----------------|-----------------|-----------------|-----------------|
B|-----------------|-----------------|-----------------|-----------------| x1
G|-------------7---|-----------------|-------------7---|-9---7-----------|
D|-9-9-9-9-9---7---|-9-9-9-9-9---7---|-9-9-9-9-9---7---|-9---7---9---x---|
A|-9-9-9-9-9---5---|-9-9-9-9-9---7---|-9-9-9-9-9---5---|-7---5---9---x---|
E|-7-7-7-7-7-------|-7-7-7-7-7---5---|-7-7-7-7-7-------|---------7---x---|
            
Submit corrections

↑ Back to top | Tablatures and chords for acoustic guitar and electric guitar, ukulele, drums are parodies/interpretations of the original songs. You may use it for private study, scholarship, research or language learning purposes only