Home » B » BöHse Onkelz »

BöHse Onkelz - Eine Botschaft FüR Paranoide Tabs

Artists:  A B C D E F G H I J K L M N O P Q R S T U V W X Y Z # 

Eine Botschaft FüR Paranoide Tabs

(ver. 1) Click to play this song!
BöHse Onkelz
Das ganze Lied besteht eigentlich aus nur einem Riff mit

unterschiedlichen Endungen!!!

Und hier ist es.

RIFF 1 (von 1)
e ---------------------------------------------------
B ---------------------------------------------------
G ---------------------------------------------------
D ------------2--------------------------------------
A –-2h4--4-4-----4--4-4-4--2---2-4-2-----------------
E ---------------------------4-------4---------------
         p.m.       .....


Diese Endung nur manchmal Spielen.       
e ---------------------------------------------------
B ---------------------------------------------------
G ------------------------------4~-------------------
D -----------2--------------4-6-----6--4p2-----------
A –2h4--4-4-----4--4-4-4/6-----------------4---------       
E ---------------------------------------------------
        p.m.       ...


Viel Spaß! 
            
Submit corrections

↑ Back to top | Tablatures and chords for acoustic guitar and electric guitar, ukulele, drums are parodies/interpretations of the original songs. You may use it for private study, scholarship, research or language learning purposes only