» » »

BöHse Onkelz - Das Leben Ist Ein Spiel Tabs

Artists:  A B C D E F G H I J K L M N O P Q R S T U V W X Y Z # 

Das Leben Ist Ein Spiel Tabs

(ver. 1) Click to play this song!
BöHse Onkelz
 Rating:
4/5 (4 votes)

 Das Leben Ist Ein Spiel lessons Tabs too difficult? Try these video lessons and learn fast
 
                INTRO:            Bass
g ------------------------------------------
D ------------------------------------------
A ------------------------------------------
E –-5--5-5--5-5--5-5-4-5-5--5-5--5-5--5-5---



INTRO SOLO:                            ¼ 
e ------------------------------------------------------
B -----------------5------5-----------------------------
G -----------------7b-----7b-----7--5--7b--7br----------                      D --2--5--2--5------------------------------------7~----
A --0--3--0--3------------------------------------------
E ------------------------------------------------------


e ----------------------5----------------5--------------
B ----------------------5--8b~--8-7--8b----8-7--8b~-----
G -----5-7-7b--7-5-7-5----------------------------------
D --/7--------------------------------------------------
A ------------------------------------------------------
E ------------------------------------------------------

                                    
e --5---------------------------------------------------
B ----7-5-----------------------------------------------
G --------5-7p5-5---5h7p5---5---------------------------
D ----------------7-------7---7-5-----------------------
A --------------------------------7-5h7p5h7p5/3p0h3p0---
E ----------------------------------------------------7/

  _________IMPROVISIEREN__________
e -----------------------------8p5-------5(5)-----------
B -------------------5h7p7---5------------5-------------
G ---------------5-7-------7------------------7br----5--
D -----------5-7----------------------------------------
A -------5-7--------------------------------------------
E --/5-8------------------------------------------------


e ------------------------------------------------------
B ------------------------------------------------------
G –-7br----5----7br-5-7br-5-7br----5--------------------                                   D --------------------------------------7-5-7-5\--------      
A ------------------------------------------------------
E ------------------------------------------------------
e -------------------------------5-----------------------
B -----------------------------5---8brp5---5-------------
G ------5h7p5----5-5~-------7b-----------7---7-5---------
D -------------7---------------------------------7-5-7~~-
A –-5h7--------------------------------------------------
E -------------------------------------------------------



ÜBERGANG:           Bass            4X
G --------------------------------------
D --------------------------------------                      A –-5p7--7-7-7-7-7—7\-------------------
E ----------------------2-3-5-----------



VERSE:             -E-                             4X
e -----------------------------------------------------
B -----------------------------------------------------
G -----------------------------------------------------
D –-4----5----4-----2----------------------------------
A --4----5----4-----2-2-2-2-2-2-2-2-2-2----------------
E --2----3----2-----0-0-0-0-0-0-0-0-0-0----------------
                      p.m..............  
                    
                    2.Teil vom Verse                2X
e ---------------I-------------------------------------
B ---------------I-------------------------------------
G ---------------I-------------------------------------
D --4----5----4--I-------------------------------------
A --4----5----4--I-------10-----9-----7---5---5/7------
E --2----3----2--I---0-0----0-0---0-0---0---0----------
                     p.m.   ...   ...   .   .
                                                    2X
e ------------------------------------------------------
B ------------------------------------------------------
G ----------------------------------------zurück--------
D ----------------------------------------zum E vom-----
A ------5-----3-----2---0---2---3---------(VERSE)-------
E --3-3---3-3---3-3---3---3---3-------------------------
 p.m...   ...   ...   .   .   .

    
ÜBERGANG ZUM CHORUS:
e ------------------------------------------------------
B ------------------------------------------------------
G ------------------------------------------------------
D --------------3/4-44-4-4-4---------------3/4-44-4-4-4-
A ----------4-5-1/2-22-2-2-2-----------4-5-1/2-22-2-2-2-
E --000-000-2-3----------------000-000-2-3--------------
    p.m........                p.m........
CHORUS:
e ------------------------------------------------------
B ------------------------------------------------------
G ------9------8------9----8----8-/-9-------------------
D ------9------8------9----8----8-/-9-------------------
A ------7------6------7----6----6-/-7-------------------
E --0-0----0-0----0-0----0----0-------------------------
 p.m...    ...    ...    .    .

e ------------------------------------------------------
B ------------------------------------------------------
G ------------------------------------------------------
D ------7------7------7-/-9-9-9-9-----------------------
A ------7------7------7-/-9-9-9-9-----------------------
E --0-0-5--0-0-5--0-0-5-/-7-7-7-7-----------------------
 p.m...    ...    ...


Übergang zum SOLO:
e ------------------------------------------------------
B ------------------------------------------------------
G ------------------------------------------------------
D ----7---5---4---5---4------7---5---4---7---5----------
A ----7---7---7---7---7------7---7---7---7---7----------
E --0---0---0---0---0------0---0---0---0---0------------
 p.m.   .   .   .   .      .   .   .   .   .



SOLO:
e ------------------------------------------------------
B -----10---8---7---8---7------10---8---7---8---7-------
G --/9----9---9---9---9------9----9---9---9---9---------
D ------------------------------------------------------
A ------------------------------------------------------
E ------------------------------------------------------


e ------------------------------------------------------
B --12--------------------------------------------------
G –-14b--14b--14b--14b--14b--14b--14b--14b--------------
D ------------------------------------------------------
A ------------------------------------------------------
E ------------------------------------------------------


e -------------------------------------------------------
B -15p13p12-15p13p12-15p13p12-15p13p12p-15p13p12-15p13p12
G -------------------------------------------------------
D -------------------------------------------------------
A -------------------------------------------------------
E -------------------------------------------------------
e -------------------15p14p12----------------------------
B -15p13p12-15p13p12----------15p13p12-------------------
G -------------------------------------14p13p12h13p12----
D -------------------------------------------------------
A -------------------------------------------------------
E -------------------------------------------------------


                         ((14b) heißt den Bend halten und
                           mit dem kleinen u. dem Zeige-
                           finger die pull-offs machen.
                           Aber ihr könnts auch tappen,
                           indem ihr den gebendeten Ton
                           im 17.Bund tappt!!!)
e -------------------------------------------------------
B –-8b---8b---8b------15--15----15p12-15p12-15p12-15p12--
G -----9----9-----14b-----14b----(14b)-(14b)-(14b)-(14b)-
D -------------------------------------------------------
A -------------------------------------------------------
E -------------------------------------------------------


e -------------------------------------------------------
B –15p12-15p12-15p12----12-------------------------------
G –-(14b)-(14b)-(14b)---14br—p12 14p12-------------------
D -------------------------------------14~~~-------------
A -------------------------------------------------------
E -------------------------------------------------------

BASS INTRO
INTRO SOLO
BASS ÜBERGANG
VERSE
ÜBERGANG ZUM CHORUS
CHORUS
VERSE (2.Teil)
ÜBERGANG ZUM CHORUS
CHORUS
ÜBERGANG ZUM SOLO
SOLO
CHORUS
VERSE (2.Teil)
ÜBERGANG ZUM CHORUS
CHORUS
SCHLUSS:
e -------------------------------------------------------
B -------------------------------------------------------
G -------------------------------------------------------
D --2--------------------4-/-5-\-4----2------------------
A --2-2-2-2-2-2-2-2-2----4-/-5-\-4----2------------------
E --0-0-0-0-0-0-0-0-0----2-/-3-\-2----0------------------
      p.m............
Ok, das hätten wir geschafft. Wenn ihr Fragen habt,
            
Submit corrections


        Das Leben Ist Ein Spiel lessons Hard to play? Try these video lessons and learn fast Das Leben Ist Ein Spiel lessons
        
↑ Back to top | Tablatures and chords for acoustic guitar and electric guitar, ukulele, drums are parodies/interpretations of the original songs. You may use it for private study, scholarship, research or language learning purposes only