» » »

Between The Buried And Me - Ants Of The Sky Tabs

Artists:  A B C D E F G H I J K L M N O P Q R S T U V W X Y Z # 

Ants Of The Sky Tabs

(ver. 1) Click to play this song!
Between The Buried And Me
 Rating:
3.3/5 (15 votes)


 Ants Of The Sky lessons Tabs too difficult? Try these video lessons and learn fast
 
                |------------------------------------------------------------------------------------|
|------------------------15-13-12-------------------------12-10-------10-12-------10-|
|----16-12-14--16-12-14------------14-12-11--12--11h12p11-------11-12-------11-------|
|------------------------------------------------------------------------------12----|
|------------------------------------------------------------------------------------|
|------------------------------------------------------------------------------------|
        

|-------------------------------------------12-15-15-12-----14h17p14-----------------|
|---------------------------------12-15-13--------------13-----------15--------------|
|--12-11-9-----9-11--------11-12---------------------------------------14-----14-----|
|-----------12-------9-12------------------------------------------------16--16------|
|--------------------------------------------------------------------------17--------|
|------------------------------------------------------------------------------------|
            
Submit corrections



        Ants Of The Sky lessons Hard to play? Try these video lessons and learn fast Ants Of The Sky lessons
        
↑ Back to top | Tablatures and chords for acoustic guitar and electric guitar, ukulele, drums are parodies/interpretations of the original songs. You may use it for private study, scholarship, research or language learning purposes only