Home » B » Ben Rector »

Ben Rector - Untitled Tabs

Artists:  A B C D E F G H I J K L M N O P Q R S T U V W X Y Z # 

Untitled Tabs

(ver. 1) Click to play this song!
Ben Rector
[Intro]
 
D|-------0--------------------------|
C|------0---4p2-0-2-4-4-2-4/7-------|
G|-----0----------------------------|
C|----0-----------------------------|
G|---0------------------------------|
C|--0-------------------------------|
 
 
 
[Verse 1]
                     PM 4x                  PM 4x                   PM 4x
D|---------------------x----------------------x----------------------x---------0---------12+-----|
C|---------------------x----------------------x----------------------x-------0---0----------12+--|
G|--------5---4/5--5---x---------5---4/5--5---x---------5---4/5--5---x-----0-------0--12+--------|
C|------0---0----------x-------0---0----------x-------0---0----------x---------------------------|
G|----0----------------x-----0----------------x-----0----------------x---------------------------|
C|--0------------------x---0------------------x---5------------------x---0-----------------------|
 
 
 
                    PM 4x                  PM 4x                   PM 4x
D|---------------------x----------------------x----------------------x---------0---------12+-----|
C|--------4---3/4--4---x---------4---3/4--4---x---------4---3/4--4---x-------0---0----------12+--|
G|--------5---4/5--5---x---------5---4/5--5---x---------5---4/5--5---x-----0-------0--12+--------|
C|------0---0----------x-------0---0----------x-------0---0----------x---------------------------|
G|----0----------------x-----0----------------x-----0----------------x---------------------------|
C|--0------------------x---0------------------x---5------------------x---0-----------------------|
 
 
[Chorus]
 
D|-----------------------------------------------------------------------|
C|--------0-----------0----------------------0-----------0---------------|
G|------5-----5-----5-----5----------------5-----5-----5-----5-----------|
C|----0-----------0------------0---0-----0-----------0------------0---0--|
G|--5-----------5------------5---5---------------------------------------|
C|-------------------------------------5-----------5------------5---5----|
 
 
 
D|-----------------------------------------------------------------|
C|--------0-----------0----------------------------0------------0--|
G|------5-----5-----5-----5----------------------4----4-------4----|
C|----0-----------0------------0---0-----2---2-2--------2---2------|
G|-------------------------------------0---0--------------0--------|
C|--0-----------0------------0---0---------------------------------|
 
 
 
D|-----------------------------------------------------------------------|
C|--------4-----------4----------------------4-----------0---------------|
G|--------5-----------5----------------------5--------5-----5------------|
C|----0------0----0-------0----0---0-----0-------0---0------------0---0--|
G|--5---5-------5---5--------5---5---------------------------------------|
C|-------------------------------------5---5-------5------------5---5----|
 
 
 
D|-----------------------------------------------------------------|
C|--------0-----------0-----------------------------0-----------0--|
G|--------5-----------5---------------------------4---4-------4----|
C|------0-----0-----0-----0----0---0-----2---2-2--------2---2------|
G|----0-----------0--------------------0---0--------------0--------|
C|--0-----------0------------0---0---------------------------------|
 
 
[Bridge]
            s                                s
D|---------------------------------------------------------------------|
C|--------0---4p2p0-2h4-4p2-4/7--7p0--------0---4p2h0-2p0-0-2p0-0-2p0--|
G|------0---------------------------------0----------------------------|
C|----0---------------------------------0------------------------------|
G|---------------------------------------------------------------------|
C|--0---------------------------------0--------------------------------|
 
 
            s                                s
D|------------------------------------------0--------------------------|
C|--------0---4p2p0-2h4-4p2-4/7--7p0------0-----0-----------0-2p0---0--|
G|------0-------------------------------0----------0--0h2h4-------4----|
C|----0----------------------------------------------------------------|
G|---------------------------------------------------------------------|
C|--0---------------------------------0--------------------------------|
 
 
 
            s                                s
D|---------------------------------------------------------------------|
C|--------0---4p2p0-2h4-4p2-4/7--7p0--------0---4p2h0-2p0-0-2p0-0-2p0--|
G|------0---------------------------------0----------------------------|
C|----0---------------------------------0------------------------------|
G|---------------------------------------------------------------------|
C|--0---------------------------------0--------------------------------|
 
 
            s                                s
D|------------------------------------------0--------------------------|
C|--------0---4p2p0-2h4-4p2-4/7--7p0------0-----0-----------0-2p0---0--|
G|------0-------------------------------0----------0--0h2h4-------4----|
C|----0----------------------------------------------------------------|
G|---------------------------------------------------------------------|
C|--0---------------------------------0--------------------------------|
 
 
 
[Verse 2)
 
                    PM 4x                  PM 4x                   PM 4x
D|---------------------x----------------------x----------------------x---------0------|
C|--------4---3/4--4---x---------4---3/4--4---x---------4---3/4--4---x-------0---0----|
G|--------5---4/5--5---x---------5---4/5--5---x---------5---4/5--5---x-----0-------0--|
C|------0---0----------x-------0---0----------x-------0---0----------x----------------|
G|----0----------------x-----0----------------x-----0----------------x---0------------|
C|--0------------------x---0------------------x---5------------------x----------------|
 
 
D|--10h0--9h0--7h0--5h0--|
C|-----------------------|
G|-----------------------|
C|-----------------------|
G|-----------------------|
C|-----------------------|
 
 
                    PM 4x                  PM 4x                   PM 4x
D|---------------------x----------------------x----------------------x---------0---------12+-----|
C|--------4---3/4--4---x---------4---3/4--4---x---------4---3/4--4---x-------0---0----------12+--|
G|--------5---4/5--5---x---------5---4/5--5---x---------5---4/5--5---x-----0-------0--12+--------|
C|------0---0----------x-------0---0----------x-------0---0----------x---------------------------|
G|----0----------------x-----0----------------x-----0----------------x---0-----------------------|
C|--0------------------x---0------------------x---5------------------x---------------------------|
 
 
 
[Chorus]
 
D|-----------------------------------------------------------------------|
C|--------0-----------0----------------------0-----------0---------------|
G|------5-----5-----5-----5----------------5-----5-----5-----5-----------|
C|----0-----------0------------0---0-----0-----------0------------0---0--|
G|--5-----------5------------5---5---------------------------------------|
C|-------------------------------------5-----------5------------5---5----|
 
 
 
D|-----------------------------------------------------------------|
C|--------0-----------0----------------------------0------------0--|
G|------5-----5-----5-----5----------------------4----4-------4----|
C|----0-----------0------------0---0-----2---2-2--------2---2------|
G|-------------------------------------0---0--------------0--------|
C|--0-----------0------------0---0---------------------------------|
 
 
 
D|-----------------------------------------------------------------------|
C|--------4-----------4----------------------4-----------0---------------|
G|--------5-----------5----------------------5--------5-----5------------|
C|----0------0----0-------0----0---0-----0-------0---0------------0---0--|
G|--5---5-------5---5--------5---5---------------------------------------|
C|-------------------------------------5---5-------5------------5---5----|
 
 
 
D|-----------------------------------------------------------------|
C|--------0-----------0-----------------------------0-----------0--|
G|--------5-----------5---------------------------4---4-------4----|
C|------0-----0-----0-----0----0---0-----2---2-2--------2---2------|
G|----0-----------0--------------------0---0--------------0--------|
C|--0-----------0------------0---0---------------------------------|
 
 
 
[Bridge]
            s                                s
D|---------------------------------------------------------------------|
C|--------0---4p2p0-2h4-4p2-4/7--7p0--------0---4p2h0-2p0-0-2p0-0-2p0--|
G|------0---------------------------------0----------------------------|
C|----0---------------------------------0------------------------------|
G|---------------------------------------------------------------------|
C|--0---------------------------------0--------------------------------|
 
 
            s                                s
D|------------------------------------------0--------------------------|
C|--------0---4p2p0-2h4-4p2-4/7--7p0------0-----0-----------0-2p0---0--|
G|------0-------------------------------0----------0--0h2h4-------4----|
C|----0----------------------------------------------------------------|
G|---------------------------------------------------------------------|
C|--0---------------------------------0--------------------------------|
 
 
 
            s                                s
D|---------------------------------------------------------------------|
C|--------0---4p2p0-2h4-4p2-4/7--7p0--------0---4p2h0-2p0-0-2p0-0-2p0--|
G|------0---------------------------------0----------------------------|
C|----0---------------------------------0------------------------------|
G|---------------------------------------------------------------------|
C|--0---------------------------------0--------------------------------|
 
 
            s                                s
D|------------------------------------------0--------------------------|
C|--------0---4p2p0-2h4-4p2-4/7--7p0------0-----0-----------0-2p0---0--|
G|------0-------------------------------0----------0--0h2h4-------4----|
C|----0----------------------------------------------------------------|
G|---------------------------------------------------------------------|
C|--0---------------------------------0--------------------------------|
 
 
 
[Outro]
                     PM 4x                  PM 4x                   PM 4x
D|---------------------x----------------------x----------------------x---0--0--------|
C|---------------------x----------------------x---------4---3/4--4---x---0--0-----0--|
G|--------5---4/5--5---x---------5---4/5--5---x---------5---4/5--5---x---0--0--4--5--|
C|------0---0----------x-------0---0----------x-------0---0----------x---0--0--0--0--|
G|----0----------------x-----0----------------x-----0----------------x---0--0--4--5--|
C|--0------------------x---0------------------x---5------------------x---0--0--0--0--|
 
 
 
 
D|----------------------12+-12+--|
C|--------------12+-12+----------|
G|------12+-12+------------------|
C|--12+--------------------------|
G|-------------------------------|
C|-------------------------------|
            
Submit corrections

↑ Back to top | Tablatures and chords for acoustic guitar and electric guitar, ukulele, drums are parodies/interpretations of the original songs. You may use it for private study, scholarship, research or language learning purposes only