Home » B » Ben Rector »

Ben Rector - Paris Tabs

Artists:  A B C D E F G H I J K L M N O P Q R S T U V W X Y Z # 

Paris Tabs

(ver. 1) Click to play this song!
Ben Rector
[Intro/Verse]

D |---------------------------------------------------------------------------|
A |---------------------------------------------------------------------------|
F#|--12--10--8--7--5--3--1--0-------------------------------------------------|
D |---------------------------------------------------------------------------|
A |---------------------------------------------------------------------------|
D |--12--11--9--7--5--4--2--0-------------------------------------------------|


[Lick at end of Intro]
D |---------------------------------------------------------------------------|
A |---------------0-----------------------------------------------------------|
F#|--1--4--1--0--1--1---------------------------------------------------------|
D |---------------------------------------------------------------------------|
A |---------------------------------------------------------------------------|
D |--2--4--2--0--0----0-------------------------------------------------------|


[Chorus]

*Strum Each chord for 2 beats except the last two (A & G) which are 1 beat.  At the
end go back to the intro
or end on an open strum (D).

    Em    F#m     D      Bm     Em     A    G
D |-0------0------0------0------0------0----0-------------------------------------------|
A |-0------0------0------0------0------0----0-------------------------------------------|
F#|-1------3------8------1------1------7----5-------------------------------------------|
D |-0------4------0------0------0------0----0-------------------------------------------|
A |-2------4------9------2------2------0----0-------------------------------------------|
D |-2------x------0------x------2------7----5-------------------------------------------|
            
Submit corrections

↑ Back to top | Tablatures and chords for acoustic guitar and electric guitar, ukulele, drums are parodies/interpretations of the original songs. You may use it for private study, scholarship, research or language learning purposes only