Home » B » Ben Lee »

Ben Lee - We're All In This Together Tabs

Artists:  A B C D E F G H I J K L M N O P Q R S T U V W X Y Z # 

We're All In This Together Tabs

(ver. 1) Click to play this song!
Ben Lee
Intro:
E-----4-----4-----4-----4-----------4-----------4------------4-----------4-|
B-----5-----5-----5-----5-----------5-----------5------------5-----------5-|
G--------------------------------------------------------------------------|
D--------------------------------------------------------------------------|
A-----------------------------4-----------4------------4------------4------|
E--------------------------------------------------------------------------|

Verse:
E-----------4-----------4---------------4----------------4---------------4-|
B-----------5-----------5---------------5----------------5---------------5-|
G--------------------------------------------------------------------------|
D--------------------------------------------------------------------------|
A------------------------------------------------------------------4-------|
E-----0-----------0-----------0--2--------------2----------------2---------|

E-----------4---------------4---------------4------------------------------|
B-----------5---------------5---------------5------------------------------|
G--------------------------------------------------------------------------|
D--------------------------------------------------------------------------|
A-----4-----------4-0----------------0--------------0----------------------|
E--------------------------------------------------------------------------|

Repeat throughout the song
            
Submit corrections

↑ Back to top | Tablatures and chords for acoustic guitar and electric guitar, ukulele, drums are parodies/interpretations of the original songs. You may use it for private study, scholarship, research or language learning purposes only