Home » B » Ben Kweller »

Ben Kweller - My Apartment Tabs

Artists:  A B C D E F G H I J K L M N O P Q R S T U V W X Y Z # 

My Apartment Tabs

(ver. 1) Click to play this song!
Ben Kweller
Tuning: Standard

Intro/Riff
e|--7--7--5--5--3--3--3--2--|
B|--------------------------|
G|--7--7--5--5--4--4--3--2--|
D|--------------------------|
A|--------------------------|
E|--------------------------|

Verse 1 (only Guitar 1)
   G
e|-3-3-3-3-3-3-3-3-3-3-3-3-3-3-3-3--|x2
B|-3-3-3-3-3-3-3-3-3-3-3-3-3-3-3-3--|
G|-0-0-0-0-0-0-0-0-0-0-0-0-0-0-0-0--|
D|-0-0-0-0-0-0-0-0-0-0-0-0-0-0-0-0--|
A|-x-x-x-x-x-x-x-x-x-x-x-x-2-2-x-x--|
E|-3-3-3-3-3-3-3-3-3-3-2-2-0-0-2-2--|

   C 
e|----------------------------------|x2
B|-1-1-1-1-1-1-1-1-1-1-1-1-1-1-1-1--|
G|-0-0-0-0-0-0-0-0-0-0-0-0-0-0-0-0--|
D|-2-2-2-2-2-2-2-2-2-2-x-x-0-0-x-x--|
A|-3-3-3-3-3-3-3-3-3-3-2-2-0-0-2-2--|
E|----------------------------------|

Chorus

Guitar 1
   G             D             G             D
e|-3--3-3--3-3-3-2--2-2--2-2-2-3--3-3--3-3-3-2--2-2--2-2-2--|
B|-3--3-3--3-3-3-3--3-3--3-3-3-3--3-3--3-3-3-3--3-3--3-3-3--|
G|-0--0-0--0-0-0-2--2-2--2-2-2-0--0-0--0-0-0-2--2-2--2-2-2--|
D|-0--0-0--0-0-0-0--0-0--0-0-0-0--0-0--0-0-0-0--0-0--0-0-0--|
A|-2--2-2--2-2-2---------------2--2-2--2-2-2----------------|
E|-3--3-3--3-3-3---------------3--3-3--3-3-3----------------|

   Am            Bm            C             D
e|-0--0-0--0-0-0-2--2-2--2-2-2-3--3-3--3-3-3-5--5-5--5-5-5--|
B|-1--1-1--1-1-1-3--3-3--3-3-3-5--5-5--5-5-5-7--7-7--7-7-7--|
G|-2--2-2--2-2-2-4--4-4--4-4-4-5--5-5--5-5-5-7--7-7--7-7-7--|
D|-2--2-2--2-2-2-4--4-4--4-4-4-5--5-5--5-5-5-7--7-7--7-7-7--|
A|-0--0-0--0-0-0-2--2-2--2-2-2-3--3-3--3-3-3-5--5-5--5-5-5--|
E|----------------------------------------------------------|

   G             D             G             D
e|-3--3-3--3-3-3-2--2-2--2-2-2-3--3-3--3-3-3-2--2-2--2-2-2--|
B|-3--3-3--3-3-3-3--3-3--3-3-3-3--3-3--3-3-3-3--3-3--3-3-3--|
G|-0--0-0--0-0-0-2--2-2--2-2-2-0--0-0--0-0-0-2--2-2--2-2-2--|
D|-0--0-0--0-0-0-0--0-0--0-0-0-0--0-0--0-0-0-0--0-0--0-0-0--|
A|-2--2-2--2-2-2---------------2--2-2--2-2-2----------------|
E|-3--3-3--3-3-3---------------3--3-3--3-3-3----------------|

   Am            Bm            C             D  C  D    C  D    C D
e|-0--0-0--0-0-0-2--2-2--2-2-2-3--3-3--3-3-3-5--3/-5-5--3/-5-5--3-5--|
B|-1--1-1--1-1-1-3--3-3--3-3-3-5--5-5--5-5-5-7--5/-7-7--5/-7-7--5-7--|
G|-2--2-2--2-2-2-4--4-4--4-4-4-5--5-5--5-5-5-7--5/-7-7--5/-7-7--5-7--|
D|-2--2-2--2-2-2-4--4-4--4-4-4-5--5-5--5-5-5-7--5/-7-7--5/-7-7--5-7--|
A|-0--0-0--0-0-0-2--2-2--2-2-2-3--3-3--3-3-3-5--3/-5-5--3/-5-5--3-5--|
E|-------------------------------------------------------------------|

Guitar 2
    
e|---------10-------------------10-----------|x2
B|------12-----12----12------10-----10----10-|
G|--12------------12-----11------------11----|
D|-------------------------------------------|
A|-------------------------------------------|
E|-------------------------------------------|

e|-------8------------------10-------------------12------------------14------------|
B|----10----10---10------12-----12----12------13----13----13------15-----15----15--|
G|-9-----------9-----11------------11-----12-----------12-----14------------14-----|
D|---------------------------------------------------------------------------------|
A|---------------------------------------------------------------------------------|
E|---------------------------------------------------------------------------------|

e|---------10-------------------10-----------|x2
B|------12-----12----12------10-----10----10-|
G|--12------------12-----11------------11----|
D|-------------------------------------------|
A|-------------------------------------------|
E|-------------------------------------------|

e|--10-----10----8----10----12--5--3/-5-5--3/-5-5--3-5--|
B|--12-----10----10---12----13--7--5/-7-7--5/-7-7--5-7--|
G|--12-----11----9----11----12--7--5/-7-7--5/-7-7--5-7--|
D|------------------------------7--5/-7-7--5/-7-7--5-7--|
A|------------------------------5--3/-5-5--3/-5-5--3-5--|
E|------------------------------------------------------|

Verse 2
Guitar 1 same as Verse 1

Guitar2

   G
e|----------------------------------|x2
B|----------------------------------|
G|-0-0-0-0-0-0-0-0-0-0-0-0-0-0-0-0--|
D|-5-5-5-5-5-5-5-5-5-5-4-4-2-2-4-4--|
A|-x-x-x-x-x-x-x-x-x-x-x-x-x-x-x-x--|
E|-3-3-3-3-3-3-3-3-3-3-3-3-3-3-3-3--|

   C 
e|----------------------------------|x2
B|----------------------------------|
G|-5-5-5-5-5-5-5-5-5-5-4-4-2-2-4-4--|
D|-0-0-0-0-0-0-0-0-0-0-0-0-0-0-0-0--|
A|-3-3-3-3-3-3-3-3-3-3-3-3-3-3-3-3--|
E|----------------------------------|

Chorus

Guitars Tacet

Riff x2

Verse 3 without lyrics

Guitar 2
e|------------------------------------------------|x2
B|------------------------------------------------|
G|-12-12-12-12-12-12-12-12-12-12-11-11-9-9-11-11--|
D|------------------------------------------------|
A|-10-10-10-10-10-10-10-10-10-10-9--9--7-7-9--9---|
E|------------------------------------------------|

e|--------------------------------------------------|x2
B|-13-13-13-13-13-13-13-13-13-13-12-12-10-10-12-12--|
G|--------------------------------------------------|
D|-10-10-10-10-10-10-10-10-10-10-9--9--7--7--9--9---|
A|--------------------------------------------------|
E|--------------------------------------------------|

Chorus
            
Submit corrections

↑ Back to top | Tablatures and chords for acoustic guitar and electric guitar, ukulele, drums are parodies/interpretations of the original songs. You may use it for private study, scholarship, research or language learning purposes only