» » »

Bell X1 - Flame Tabs

Artists:  A B C D E F G H I J K L M N O P Q R S T U V W X Y Z # 

Flame Tabs

(ver. 1) Click to play this song!
Bell X1
 Rating:
4/5 (9 votes)

 Flame lessons Tabs too difficult? Try these video lessons and learn fast
 
                Main Riff (Chorus)

e:-9--10-10-10-10-10-9--xx--9--10-10-10-10-10-9--xx--2-2-2-2-2/5-5--7-7-:
b:-12-12-12-12-12-12-12-xx--12-12-12-12-12-12-12-xx--2-2-2-2-2/5-5--8-8-:
g:-11-11-11-11-11-11-11-xx--11-11-11-11-11-11-11-xx--2-2-2-2-2/6-6--9-9-:
d:----------------------------------------------------------------------:
a:----------------------------------------------------------------------:
e:----------------------------------------------------------------------:


Verse 1

e:-----------------------------------------:
b:-----------------------------------------:
g:-----------------------------------------:
d:-----------------------------------------:
a:---------7-------5-----------9-------5-5-:
e:-5-5-5-5---3-3-3----/7-7-7-7---7-7-7-----:

e:-------------------------------------77/-:
b:-------------------------------------xx--:
g:-----------------------------------------:
d:-----------------------------------------:
a:---------7-------5-----------9-----------:
e:-5-5-5-5---3-3-3----/7-7-7-7---7-7-7-----:

e:-----------------------------------------:
b:-----------------------------------------:
g:-----------------------------------------:
d:-----------------------------------------:
a:---------7-------5-----------9-------5-5-:
e:-5-5-5-5---3-3-3----/7-7-7-7---7-7-7-----:

e:-----------------------------------------:
b:-----------------------------------------:
g:-----------------------------------------:
d:-----------------------------------------:
a:---------7-------5-----------9-------5---:
e:-5-5-5-5---3-3-3----/7-7-7-7---7-7-7-----:

e:--------------------:
b:--------------------:
g:--------------------:
d:--------------------:
a:---------7-------5--:
e:-5-5-5-5---3-3-3----:


Chorus


Verse 2 (same fills as verse 1, just in a different order)


Middle 8

e:------------------------:
b:------------------------:
g:-9/11-9--xx-6/7-6-6-x-4-:
d:-x/x--x--xx-x/x-x-x-x-x-: x3
a:-7/9--7--xx-4/5-4-4-x-2-:
e:------------------------:

e:--------:
b:--------:
g:-9/11-9-:
d:-x/x--x-:
a:-7/9--7-:
e:--------:


Solo

e:-----------------------------------------/14-14-------|
b:-14-15-14-----------14-15-14-------------/14-14--10-8-|
g:----------16-----------------16----------/15-15--11-9-|
d:-------------16-----------------16----16--------------|
a:----------------17------------------13----------------|
e:------------------------------------------------------|

e:--------------------------------------------/14-14-------------:
b:-14-15-14-----------14-15-14----------------/14-14-------8-----:
g:----------16-----------------16-------------/15-15--11-9---9---:
d:-------------16-----------------16-------16------------------9-:
a:----------------17-----------------17--13----------------------:
e:---------------------------------------------------------------:


e:--------9----------10------------:
b:------8-8-------12-12--10-10--8--:
g:----9---9-----11---11--11-11--9--:
d:-11---------12---------11-11--9--:
a----------------------------------:
e----------------------------------:


Key Change

e:-11-12-12-12-12-12-11-xx--11-12-12-12-12-12-11-xx--4-4-4-4-4/7-7--9--9-:
b:-14-14-14-14-14-14-14-xx--14-14-14-14-14-14-14-xx--4-4-4-4-4/7-7--10-10:
g:-13-13-13-13-13-13-13-xx--13-13-13-13-13-13-13-xx--4-4-4-4-4/8-8--11-11:
d:-----------------------------------------------------------------------:
a:-----------------------------------------------------------------------:
e:-----------------------------------------------------------------------:
            
Submit corrections


        Flame lessons Hard to play? Try these video lessons and learn fast Flame lessons
        
↑ Back to top | Tablatures and chords for acoustic guitar and electric guitar, ukulele, drums are parodies/interpretations of the original songs. You may use it for private study, scholarship, research or language learning purposes only