» » »

Belle And Sebastian - The Party Line Tabs

Artists:  A B C D E F G H I J K L M N O P Q R S T U V W X Y Z # 

The Party Line Tabs

(ver. 1) Click to play this song!
Belle And Sebastian
 Rating:
3.3/5 (28 votes)

 The Party Line  lessons Tabs too difficult? Try these video lessons and learn fast
 
                (Tuning: standard)


Verse riff:

e|-------------------------------------------------------------
B|-------------------------------------------------------------
G|--12-12-X-X-12-X-14-X-12----------12-14-14^-14-12-12----12---
D|----------------------------12h14--------------------14------
A|-------------------------------------------------------------
E|-------------------------------------------------------------


Pre-Chorus:

e|----------------------------------------------
B|----------------------------------------------
G|--12----11----11----12-12-11-11-11-11-------
D|---------------------------------------------- 
A|----------------------------------------------
E|----------------------------------------------


Chorus (tabbed from synthesizer):

e|-------------------------------------------------
B|----------13-----------------------12------------
G|--12--14-------------------12--14----------------
D|--------------12--15-------------------12--14---- 
A|-------------------------------------------------
E|-------------------------------------------------            
Submit corrections


        The Party Line  lessons Hard to play? Try these video lessons and learn fast The Party Line  lessons
        
↑ Back to top | Tablatures and chords for acoustic guitar and electric guitar, ukulele, drums are parodies/interpretations of the original songs. You may use it for private study, scholarship, research or language learning purposes only