Home » B » Beirut »

Beirut - The Penalty Tabs

Artists:  A B C D E F G H I J K L M N O P Q R S T U V W X Y Z # 

The Penalty Tabs

(ver. 1) Click to play this song!
Beirut
 Rating:
4.7/5 (13 votes)
                -------------------------------------------------------------------------------
-------------------------------------------------------------------------------

Tuning: Standard, Capo on 3rd fret

intro/verse:
e|---0-2h-------------9--------------4------4-5h--------------2--------------|
B|---3----------------5--------------5------5-----------------3--------------|
G|---2----------------6--------------6------6-----------------2--------------|
D|---0----------------7--------------6------6-----------------0--------------|
A|---------------------------------------------------------------------------|
E|---------------------------------------------------------------------------|
Like an ancient day and I'm on trial
Let them seize the way, this once was an island

chorus:
e|---4----------------5------------------2--------------------5--------------|
B|---5----------------5------------------3--------------------5--------------|
G|---4----------------6------------------2--------------------6--------------|
D|--(2)---------------7------------------0--------------------7--------------|
A|---------------------------------------------------------------------------|
E|---------------------------------------------------------------------------|
And I could not stay for I believed them
Left for the lights always in season




And thats it!

===============================================================================
            
Submit corrections

↑ Back to top | Tablatures and chords for acoustic guitar and electric guitar, ukulele, drums are parodies/interpretations of the original songs. You may use it for private study, scholarship, research or language learning purposes only