Home » B » Beck Jeff »

Beck Jeff - Nadia Tabs

Artists:  A B C D E F G H I J K L M N O P Q R S T U V W X Y Z # 

Nadia Tabs

(ver. 1) Click to play this song!
Beck Jeff
Tuning:Half Down Tuning

Here is the my first tab,and I'm sure this is 100% correct.
Enjoy !!

Intro #1 with Slide Bar
Vol.-------------------d--------u&r-------------------------
B----+1-n0-+1-n0-------------- -1 ---+.5-n0--- -.5 ---n0---------
G-11-14-14-14-14-14^12^11~~-11-11--11-11-11----------------------
D------------------p--p---------------------12^12-----12---------
A----------------------------------------------------------------
E----------------------------------------------------------------

E-Arm->-----------------------Arm down---------------------------
B-------n.5------+.5-n0------------------------------------------
G----11-11-------11--11-11------------\--------------------------
D---------------------------------------------------------------- ×2
A----------------------------------------------------------------
E----------------------------------------------------------------

E----Arm u--------d&r-------------------------------------------d
B--------+1-------- -1----n0--- -1 n0---+.5-n0------------------
G-12--12-12~~---14--14-14-14^14-14-14-14-14-14-14-14-12-11-12-11\
D---------------------------cho----------------------p--s----p--- ×2
A----------------------------------------------------------------
E----------------------------------------------------------------

Chorus
0:49
E---------------------with Arm&Cho-------------------------------
B-7-10-14--14--14-15---1hu~> -.5-+1-n0----+1-n0--------- -1 -2 n0
G--s--s----------------16----16--16-16-16-16-16-16-16-16-16-16-16
D-----------------------------------------------------d----------
A----------------------------------------------------------------
E----------------------------------------------------------------

E---------------------with Arm&Cho-------------------------------
B-7-10-14--14--14-15---1hu~> -.5-+1-n0----+1-n0--------- -1 -2 -1
G--s--s----------------16----16--16-16-16-16-16-16-16-16-16-16-16
D-----------------------------------------------------d----------
A----------------------------------------------------------------
E----------------------------------------------------------------

1:01
E---Arm->-------------------d--------u&r-------------------------
B----+1-n0-+1-n0-------------- -1 ---+.5-n0--- -.5 ---n0---------
G-11-14-14-14-14-14^12^11~~-11-11--11-11-11----------------------
D------------------p--p---------------------12^12-----12---------
A----------------------------------------------------------------
E----------------------------------------------------------------

E-----------------------Arm d--------u&r-------------------------
B----n.5--------+.5-n0------------ -1---n.5-+0-------------------
G-11-11---------11--11--11---\--11-11-11-11-11--- -.5--n0--------
D----------------------------------------------12^12---12--\-----
A----------------------------------------------------------------
E-------------------------------------------------Arm d----------

E-Arm u&r-------------Arm d--d&r--------------------u&r---------d
B---n.5------+.5-n0--------- -1-n0---------------------+.5---n0--
G-11-11-------11-11-11----\--11-11------------------11--11----11-
D----------------------------------11--------11-12--------------\
A----------------------------------------------------------------
E----------------------------------------------------------------

E---------------Arm u&r------------------------------------------
B-----------------+.5-n0-----------------------------------------
G-11-11--11--11-11-11-11--------------n0-------------------------
D------------------------12-----------12-------------------------
A------------------------------Arm d&r---------------------------
E----------------------------------------------------------------

1:15
Vol. -.5-+1-n0----+1-n0--------- -1 -2 n0
G--s--s----------------16----16--16-16-16-16-16-16-16-16-16-16-16
D-----------------------------------------------------d----------
A----------------------------------------------------------------
E----------------------------------------------------------------

             1:35
E-------------------------+.5-n0---- -.5n0 -.5----n0-+.5---n0-d--
B-7-10-14--14--15-15-15-15-15-15--15-15-15-15-15--15-15-15-15-15-
G--s--s---------cho-2c-----2u-2u--------------------2c------2u---
D----------------------------------------------------------------
A----------------------------------------------------------------
E----------------------------------------------------------------

E-Arm d-- -.5----------------------------------------------------
B----13---13-----------------------------------------------------
G----------------------------------------------------------------
D----------------------------------------------------------------
A----------------------------------------------------------------
E----------------------------------------------------------------

E---Arm->-------------------d--------u&r-------------------------
B----+1-n0-+1-n0-------------- -1 ---+.5-n0--- -.5 ---n0---------
G-11-14-14-14-14-14^12^11~~-11-11--11-11-11----------------------
D------------------p--p---------------------12^12-----12---------
A----------------------------------------------------------------
E----------------------------------------------------------------

E-Arm->-------------------Arm down---------u&r-------------------
B-------n.5------+.5-n0--------------- -1---+.5-n0---------------
G----11-11-------11--11-11--------\-11-11-11-11-11--- -.5---n0---
D--------------------------------------------------12-12----12--- 
A----------------------------------------------------------------
E----------------------------------------------------------------

E--Arm d&r -1-n0----------u&r---------Arm d----------------------
B-15----12-12-12---------+.5-n0-------------------hc-------------
G----------------------11-11-11-11-11-----------11-11-11~--------
D--------------------------------------------12------------------
A----------------------------------------------------------------
E----------------------------------------------------------------

E----------------------------------------------------------------
B------------------+.5-n0-- -.5-----------------n0---------------
G-11-11-11--11~~-11-11-11----------------------------------------
D---------------------------12------------------12---------------
A----------------------------Arm d&r-----------------------------
E----------------------------------------------------------------

               hu
E---------------Arm u-+.5--Arm d---------------------------------
B-14-14-14-----14-14--14-----14----------------------------------
G---hc-----------------------------------------------------------
D---------------------------------------------------------------- ×2
A----------------------------------------------------------------
E----------------------------------------------------------------

Vol.-------------------d--------u&r-------------------------
B----+1-n0-+1-n0-------------- -1 ---+.5-n0--- -.5 ---n0---------
G-11-14-14-14-14-14^12^11~~-11-11--11-11-11----------------------
D------------------p--p---------------------12^12-----12---------
A----------------------------------------------------------------
E----------------------------------------------------------------

E-Arm->-----------------------Arm down---------------------------
B-------n.5------+.5-n0------------------------------------------
G----11-11-------11--11-11------------\--------------------------
D---------------------------------------------------------------- ×2
A----------------------------------------------------------------
E----------------------------------------------------------------

E----Arm u--------d&r-------------------------------------------d
B--------+1-------- -1----n0--- -1 n0---+.5-n0------------------
G-12--12-12~~---14--14-14-14^14-14-14-14-14-14-14-14-12-11-12-11\
D---------------------------cho----------------------p--s----p--- ×2
A----------------------------------------------------------------
E----------------------------------------------------------------

2:52
E---Arm->-------------------d--------u&r-------------------------
B----+1-n0-+1-n0-------------- -1 ---+.5-n0--- -.5 ---n0---------
G-11-14-14-14-14-14^12^11~~-11-11--11-11-11----------------------
D------------------p--p---------------------12^12-----12---------
A----------------------------------------------------------------
E----------------------------------------------------------------

E-Arm->-------------------Arm down---------u&r-------------------
B-------n.5------+.5-n0--------------- -1---+.5-n0---------------
G----11-11-------11--11-11--------\-11-11-11-11-11--- -.5---n0---
D--------------------------------------------------12-12----12--- 
A----------------------------------------------------------------
E----------------------------------------------------------------

                                         Tone<          Arm u&r
E--Arm u&r -1-n0------+.5-n0--Arm d------------------hu-----+.5--
B-15~~~12--12-12----------------------------11---------11-11-11--
G-------------------11-11-11-11-11\------12--------------d-------
D--------------------------------------------hc------------------
A----------------------------------------------------------------
E----------------------------------------------------------------

E-Arm u&r-------Arm D-------------+.5-n0-------------------------
B-n0-+.5-n0------------------------------------------------------
G-11-11--11-11---\------11-11--11--11-11-------------------------
D----------------------------------------12-11~~~~12-------------
A------------------------------------------p---------------------
E----------------------------------------------------------------

E---------------hu--Arm u-+.5--Arm d-----------------------------
B-14-14-14~~~---14-14-----14-14---\------------------------------
G---hc------------d----------------------------------------------
D---------------------------------------------------------------- ×2
A----------------------------------------------------------------
E----------------------------------------------------------------

Vol.<              Arm u      d
E--21-21--21~~-----21-----21--21---------------------------------
B---hc-------------------+.5-----\-------------------------------
G----------------------------------------------------------------
D---------------------------------------------------------------- ×4
A----------------------------------------------------------------
E----------------------------------------------------------------
            
Submit corrections

↑ Back to top | Tablatures and chords for acoustic guitar and electric guitar, ukulele, drums are parodies/interpretations of the original songs. You may use it for private study, scholarship, research or language learning purposes only