Home » B » Beautiful South »

Beautiful South - Don't Marry Her Bass

Artists:  A B C D E F G H I J K L M N O P Q R S T U V W X Y Z # 

Don't Marry Her Bass

(ver. 1) Click to play this song!
Beautiful South
Artist - Beautiful South
Song - Don't Marry Her


This is a simple, but effective song with a fairly easy bass part.
The bass sequence follows the same pattern throughout, 
but with slight rhythmic variation.


Intro

Rest for 4 Bars, then....

G:|----0---|2---0---|--------|--------|
D:|--------|--------|3-------|0-------|
A:|3-------|--------|----3---|-----020|
E:|--------|--------|--------|----3---|


Verse 1
(Think of you...)
	
G:|----0---|2---0---|--------|--------|
D:|--------|--------|3-------|0-------|
A:|3-------|--------|----3---|-----020|
E:|--------|--------|--------|----3---|

G:|----0---|2---0---|--------|----0---|
D:|--------|--------|3---5---|--------|
A:|3-------|--------|--------|3-------|
E:|--------|--------|--------|--------|


verse 2
(And your love...)

G:|----0---|2---0---|--------|---9-50-|
D:|--------|--------|3-------|--------|
A:|3-------|--------|----3---|5-------|
E:|--------|--------|--------|--------|

G:|----0---|2---0---|--------|----0---|
D:|--------|--------|3---5---|--------|
A:|3-------|--------|--------|3-----30|
E:|--------|--------|--------|--------|


Chorus

G:|--------|--------|--------|--------|
D:|--2---2-|--3---2-|--3---3-|--3---2-|
A:|3---3---|----3---|--------|----3---|
E:|--------|1-------|1---1---|1-------|

G:|--------|--------|--------|----0---|
D:|--2---2-|--3---2-|3---5---|--------|
A:|3---3---|----3---|--------|3-----30|
E:|--------|1-------|--------|--------|


verse 3
(Those lovely Sunday...)

G:|----0---|2--20---|--------|--------|
D:|--------|--------|3--3----|0--0----|
A:|3-------|--------|----3---|-------2|
E:|--------|--------|--------|----3---|

G:|----0---|2--20---|--------|----5---|
D:|--------|--------|3---5---|--------|
A:|3-------|--------|--------|3-----30|
E:|--------|--------|--------|--------|


verse 4
(And the kitchen's...)

G:|----0---|2--20---|--------|---9-50-|
D:|--------|--------|3--3----|--------|
A:|3-------|--------|----3---|5-------|
E:|--------|--------|--------|--------|

G:|----0---|2--20---|--------|----0---|
D:|--------|--------|3---5---|--------|
A:|3-------|--------|--------|3-----30|
E:|--------|--------|--------|--------|


Chorus (same as above)


Guitar Solo

G:||----0---|2---0---|--------|--------||
D:||--------|--------|3-------|0-------||
A:||3-------|--------|----3---|-----020|| x2
E:||--------|--------|--------|----3---||

G:|-----00-|-2-0----|--------|--------|
D:|--------|--------|3-------|-0------|
A:|3-------|--------|-----22-|-----020|
E:|--------|--------|--------|---3----|

G:|-----00-|-2-0----|--------|--------|
D:|--------|--------|3---5---|--------|
A:|3-------|--------|--------|3-------|
E:|--------|--------|--------|--------|


Chorus

6 Bars Rest. then...

G:|--------|--------||
D:|--------|--------||
A:|--------|3-------||
E:|1---3---|--------||
            
Submit corrections

↑ Back to top | Tablatures and chords for acoustic guitar and electric guitar, ukulele, drums are parodies/interpretations of the original songs. You may use it for private study, scholarship, research or language learning purposes only