» » »

Bears Den - Life In A Nutshell Chords

Artists:  A B C D E F G H I J K L M N O P Q R S T U V W X Y Z # 

Life In A Nutshell Chords

(ver. 1) Click to play this song!
Bears Den
 Rating:
3/5 (26 votes)

 Life In A Nutshell  lessons Tabs too difficult? Try these video lessons and learn fast
 
                Intro: 
Repeat the following eight times
e|-x-x--x--------------------------------------------------------------------|
B|-5-5--5-3------------------------------------------------------------------|
G|-3-3--3-3------------------------------------------------------------------|
D|-2-2--2-2------------------------------------------------------------------|
A|-2-2--2--------------------------------------------------------------------|
E|-x-x--x--------------------------------------------------------------------|

Harmonica riff
e|--15-14-16~--15------------------------------------------------------------|
B|----------------16/17------------------------------------------------------|
G|---------------------------------------------------------------------------|
D|---------------------------------------------------------------------------|
A|---------------------------------------------------------------------------|
E|---------------------------------------------------------------------------|


Verse 1:  

       C#m                  C#m                          C#m        C#m        
Nearly everything I wanted, everything I ever could have dreamed of,   
       C#m             C#m                    C#7+5 C#dim
got it all right here, oh, in a house full of love
C#m                          C#m                          C#m  C#m
Nearly everything I thought, everything I thought I might try 
       C#m            C#m             C#7+5 C#dim
Almost all came true, ooh, I'm satisfied


Chorus:
         F#7                    Bm
So don't cry (don't cry), don't cry (don't cry)
       Gdim                               F#7
When I die (don't cry) remember me with a smile in my eye

            F#7                 Bbm
It's been a long hard drive     maybe my car caught fire
           F#7                             C#7+5
But nearly everything, everything came out fine


Verse 2:

C#m            C#m            C#m   C#m
Almost got it, almost have it all    
        C#m                 C#m                          C#7+5 C#dim
But you know you don't run, oh, unless you're willing to fall
       C#m                  C#m                          C#m        C#m        
Nearly everything I wanted, everything I ever could have dreamed of  
       C#m             C#m                    C#7+5 C#dim
Got it all right here, oh, in a house full of love

Chorus:
         F#7                    Bm
So don't cry (don't cry), don't cry (don't cry)
       Gdim                               F#7
When I die (don't cry) remember me with a smile in my eye

            F#7                 Bbm
It's been a long hard drive     maybe my car caught fire
           F#7                             C#7+5
But nearly everything, everything came out fine


Break:

C#m
Aaahhh...

Repeat intro riff over lyrics
e|-x-x--x----|
B|-5-5--5-3--|
G|-3-3--3-3--|
D|-2-2--2-2--|
A|-2-2--2----|
E|-x-x--x----|

That's my life in a nutshell, baby, you do what you can do
That's my life in a nutshell, baby, you do what you can do
That's my life in a nutshell, 
that's my life in a nutshell

Solo 1:
[Need someone else to tab Adrian Belew's solo here.]


C#m
Aaahhh...

Repeat intro riff over lyrics
e|-x-x--x----|
B|-5-5--5-3--|
G|-3-3--3-3--|
D|-2-2--2-2--|
A|-2-2--2----|
E|-x-x--x----|

That's my life in a nutshell, baby, you do what you can do
That's my life in a nutshell, baby, you do what you can do

Solo 2:
[Not tabbed]

Outro:

e|-x-x--x----|
B|-5-5--5-3--|
G|-3-3--3-3--|
D|-2-2--2-2--| three times      
A|-2-2--2----|
E|-x-x--x----|

e|-x-x-|
B|-5-5-|
G|-3-3-|
D|-2-2-|
A|-2-2-|
E|-x-x-|            
Submit corrections


        Life In A Nutshell  lessons Hard to play? Try these video lessons and learn fast Life In A Nutshell  lessons
        
↑ Back to top | Tablatures and chords for acoustic guitar and electric guitar, ukulele, drums are parodies/interpretations of the original songs. You may use it for private study, scholarship, research or language learning purposes only