» » »

Beach Boys - Tm Song Bass

Artists:  A B C D E F G H I J K L M N O P Q R S T U V W X Y Z # 

Tm Song Bass

(ver. 1) Click to play this song!
Beach Boys
 Rating:
4.3/5 (21 vote)

 Tm Song lessons Tabs too difficult? Try these video lessons and learn fast
 
                
0:25

G|----------------------------------------------------------------|.
D|----------------------------------------------------------------|.
A|2-----------2---1-----------1-----------------------------------|.
E|--------------------------------4-----------4---2-----------2---|.
                                                                   .
G|----------------------------------------------------------------|.
D|----------------------------------------------------------------|.
A|2-----------2-------------------2---2-------2-------------------|.
E|----------------4-----------4-------------------4-----------4---|.
                                                                   .
G|----------------------------------------------------------------|.
D|----------------------------------------------------------------|.
A|----------------------------2-----------------------------------|.
E|3-------3-------2---2-------------------------------------------|.

0:51

G|----------------------------------------------------------------|
D|2-----------2---1-----------1-------------------5-----------5---|
A|--------------------------------4-----------4-------------------|
E|----------------------------------------------------------------|

G|----------------------------------------------------------------|
D|4-------------------------------2-------------------------------|
A|----------------2-------------------------------0---------/-2---|
E|----------------------------------------------------------------|



1:15

G|----------------------------------------------------------------|
D|------------3---4-------4-----------0---1---2-------------------|
A|2-------------------------------2-------------------------------|
E|----------------------------------------------------------------|

G|----------------------------------------------------------------|
D|----------------------------------------------------------------|
A|2-----------2-------------------------------2-------------------|
E|----------------4-----------4---3-------2-----------------------|

G|----------------------------------------------------------------|
D|------------3---4-------4-----------0---1---2-------------------|
A|2-------------------------------2-------------------------------|
E|----------------------------------------------------------------|

G|------------------------------------------------|
D|------------------------------------------------|
A|2-----------2-------------------------------2---|
E|----------------4-----------4---3---3---2-------|            
Submit corrections


        Tm Song lessons Hard to play? Try these video lessons and learn fast Tm Song lessons
        
↑ Back to top | Tablatures and chords for acoustic guitar and electric guitar, ukulele, drums are parodies/interpretations of the original songs. You may use it for private study, scholarship, research or language learning purposes only