» » »

Beach Boys - Summer Means New Love Ukulele

Artists:  A B C D E F G H I J K L M N O P Q R S T U V W X Y Z # 

Summer Means New Love Ukulele

(ver. 1) Click to play this song!
Beach Boys
 Rating:
4.3/5 (29 votes)

 Summer Means New Love lessons Tabs too difficult? Try these video lessons and learn fast
 
                [Refrain]

  G      Bm7    Am7    D7      G      Em7    Cmaj7   D7
A|2--10--9-----5-77-5---------|5-2----5-7-5-----------------|
E|---------------------3-5----|----------------3-7----------|
C|----------------------------|-----------------------------|
G|----------------------------|-----------------------------|


[Verse]

  G      Bm7    Am7     Cm6    G      Bm7     Am7    D7
A|5--14--12----10-9-10-7------|5-2---7-9-5--7--12-----------|
E|-----------------------3-5--|-----------------------------|
C|----------------------------|-----------------------------|
G|----------------------------|-----------------------------|


[Refrain]

  G      Bm7    Am7    D7      G      Bm7     B7      F   E7
A|2--10--9-----5-77-5---------|5-2----5-7-5-----------------|
E|---------------------3-5----|----------------3-7----------|
C|----------------------------|-----------------------------|
G|----------------------------|-----------------------------|


[Verse]

  Am7    Cm6    Bm7     Em7    Am7    D7      G      G
A|7--14--10---12-12-10-5-0-2--|320--730---------------------|
E|----------------------------|---------------3-------------|
C|----------------------------|------------6----------------|
G|----------------------------|-----------------------------|


[Bridge]

  Em     Em     Ebm     Ebm    Ebm    Ebm     Bb     Bb
A|7-9-10-9--7-9-6-------------|6-8-9-8--6-8-5---------------|
E|----------------------------|-----------------------------|
C|----------------------------|-----------------------------|
G|----------------------------|-----------------------------|

  Bb     Bb     Am7     Am7    Am7    Am7    Am7     D    D7
A|5-7-8-7--5-7-3-12-7----9-10-|12-7---9-10-12---------------|
E|----------------------------|-----------------------------|
C|----------------------------|-----------------------------|
G|----------------------------|-----------------------------|


[Refrain]

  G      Bm7    Am7    D7      G      Bm7    Bm7      F   E7
A|2--10--9-----5-77-5---------|5-2----5-7-5-----------------|
E|---------------------3-5----|----------------3-7----------|
C|----------------------------|-----------------------------|
G|----------------------------|-----------------------------|


[Verse]

  Am7    Cm7    F7     Bbmaj7   Gm7        Am7   D7   G
A|3--15--13---12-12-13-8-3-5--|-S-653----7-3-0--------------|
E|----------------------------|-L---------------------3-----|
C|----------------------------|-O----------------6----------|
G|----------------------------|-W---------------------------|            
Submit corrections


        Summer Means New Love lessons Hard to play? Try these video lessons and learn fast Summer Means New Love lessons
        
↑ Back to top | Tablatures and chords for acoustic guitar and electric guitar, ukulele, drums are parodies/interpretations of the original songs. You may use it for private study, scholarship, research or language learning purposes only