» » »

Beach Boys - Stoked Tabs

Artists:  A B C D E F G H I J K L M N O P Q R S T U V W X Y Z # 

Stoked Tabs

(ver. 1) Click to play this song!
Beach Boys
 Rating:
4.3/5 (22 votes)

 Stoked lessons Tabs too difficult? Try these video lessons and learn fast
 
                
A-RIFF
                                         2X
-----------------------------------------|
-----------------------------------------|
-----------------------------------------|
------7-5----------7-5---5--7------------|
----7-----7------7-----7-----------------|
--5------------5-------------------------|


D-RIFF
                                        1X
-----------------------------------------|
-----------------------------------------|
-----7-5---------7-5---5-7---------------|
---7-----7-----7-----7-------------------|
-5-----------5---------------------------|
-----------------------------------------|

  E                   D
-----------------------------------------|
-----------------------------------------|
-----9--7----------------7--5---5--7-----|
---9------9/-----------7------7----------|
-7-------------------5-------------------|
-----------------------------------------|

  A         E
-----------------------------------------|
-----------------------------------------|
-----------------------------------------|
-----7--5--------------------------------|
---7-------7-7---------------------------|
-5---------------------------------------|

  A-RIFF-Z                              2X
-----------------------------------------|
-----------------------------------------|
--7B--7B---------------------------------|
--7B--7B---5------------7--5-7-5-7-------|
-------------7--------7------------------|
--------------------5--------------------|

   D                                 A-RIFF-Z-1X
-------------------5---------------------|
--7B--7B---5-------5--5---5--7-----------|
--7B--7B-----7--7-------7----------------|
-----------------------------------------|
-----------------------------------------|
-----------------------------------------|

  E                D
-----------------------------------------------|
-----------------------------------------------|
-----9--7-------------7--5---5--7----7--5--7---|
---9------9---------7------7---------7--5--7---|
-7----------------5--------------------------7-|
-----------------------------------------------|


--8B------5-----------------8--5---------------------|
--7B----5------------------------8--5------------7---|
--------------7B-7B--7B--5-------------7B-7B-5---7---|
-----------------------------------------------------|
-----------------------------------------------------|
-----------------------------------------------------|

   D
------5--8-----5------------------12------------12----|
--7--------------5--5---8--8------12----------12------|
--7-------------------------------12--------12--------|
----------------------------------11------11----------|
----------------------------------12------------------|
------------------------------------------------------|


------------------------------------------5--8--5------------|
---------------------------------------------------5--8------|
-----9--7------------7--5---7B-5-------------------------7B--|
---9------9--------7--------------7-7------------------------|
-7--------------5--------------------------------------------|
-------------------------------------------------------------|


-----------------5--8--5-------------------------------------|
--------------------------8---5------------------------8--10-|
----------------------------------7B-7B--5-------5-7-9-------|
-----------------------------------------------7-------------|
-------------------------------------------------------------|
-------------------------------------------------------------|


--7--5--8-----------------------------------------------|
--------------8-----------------------------------------|
-----------------7B-7B-7-5--------5---------------------|
-----------------------------7--7---7-----7--7--7-5-----|
--------------------------------------------------------|
--------------------------------------------------------|


-------------5-----------12---12----12--------5--8-5-----|
-------------5-----------12---12----12-------------------|
-------5-----6-----------12---12----12-------------------|
-7-7-7-------------------12---12----12-------------------|
-------------------------11---11----11-------------------|
---------------------------------------------------------|


----------------------------------------------------------|
----------------------------------------------------------|
-7B-7B--5---------5---7B-7B-7B--5-------------------------|
----------7-----7-------------------7-------7--5----------|
-----------------------------------------7--------7-------|
----------------------------------------------------------|            
Submit corrections


        Stoked lessons Hard to play? Try these video lessons and learn fast Stoked lessons
        
↑ Back to top | Tablatures and chords for acoustic guitar and electric guitar, ukulele, drums are parodies/interpretations of the original songs. You may use it for private study, scholarship, research or language learning purposes only