» » »

Beach Boys - She Knows Me Too Well Bass

Artists:  A B C D E F G H I J K L M N O P Q R S T U V W X Y Z # 

She Knows Me Too Well Bass

(ver. 1) Click to play this song!
Beach Boys
 Rating:
4.4/5 (7 votes)

 She Knows Me Too Well lessons Tabs too difficult? Try these video lessons and learn fast
 
                
0:04

G|----------------------------------------------------------------|
D|----------------------------------------------------------------|
A|----------------------------------------------------------------|
E|4-----------4-----------4-------0-----------0-----------0-------|

G|----------------------------------------------------------------|
D|----------------------------------------------------------------|
A|4-----------4-----------4---------------------------------------|
E|--------------------------------5-----------5-----------5-------|

G|----------------------------------------------------------------|
D|----------------------------------------------------------------|
A|4-----------4-----------4---------------------------------------|
E|--------------------------------2-----------2-----------2-------|

G|----------------------------------------------------------------|
D|----------------------------------------------------------------|
A|----------------------------------------------------------------|
E|4-----------4-----------4-------0-----------0-----------0-------|

0:21

G|----------------------------------------------------------------|
D|----------------------------------------------------------------|
A|4-----------4-----------4---------------------------------------|
E|--------------------------------5-----------5-----------5-------|

G|----------------------------------------------------------------|
D|----------------------------------------------------------------|
A|4-----------4-----------4---------------------------------------|
E|--------------------------------2-----------2-----------2---/---|

G|------------------------------------------------------------------|
D|------------------------------------------------------------------|
A|------------------------------------------------------------------|
E|7-----------7-----------7-------7-----------7-------0---0/7-------|

G|----------------------------------------------------------------|
D|----------------------------------------------------------------|
A|----------------------------------------------------------------|
E|4-----------4-----------4-------4-----------4-------0---2-------|

G|----------------------------------------------------------------|
D|----------------------------------------------------------------|
A|----------------------------------------------------------------|
E|0-----------0-----------0-------0-----------0-----------0-------|

G|----------------------------------------------------------------|
D|----------------------------------------------------------------|
A|4-----------4-----------4---------------------------------------|
E|--------------------------------0-----------2-----------2-------|

0:45

G|----------------------------------------------------------------|
D|----------------------------------------------------------------|
A|4-----------4-----------4---------------------------------------|
E|--------------------------------5-----------5-----------5-------|

G|----------------------------------------------------------------|
D|----------------------------------------------------------------|
A|4-----------4-----------4---------------------------------------|
E|--------------------------------2-----------2-----------2---/---|

G|----------------------------------------------------------------|
D|----------------------------------------------------------------|
A|----------------------------------------------------------------|
E|4-----------4-----------4-------0-----------0-----------0-------|

0:57

G|----------------------------------------------------------------|
D|----------------------------------------------------------------|
A|4-----------4-----------4---------------------------------------|
E|--------------------------------5-----------5-----------5-------|

G|----------------------------------------------------------------|
D|----------------------------------------------------------------|
A|4-----------4-----------4---------------------------------------|
E|--------------------------------2-----------2-----------2---/---|

G|------------------------------------------------------------------|
D|------------------------------------------------------------------|
A|------------------------------------------------------------------|
E|7-----------7-----------7-------7-----------7-------0---0/7-------|

G|----------------------------------------------------------------|
D|----------------------------------------------------------------|
A|----------------------------------------------------------------|
E|4-----------4-----------4-------4-----------4-------0---2-------|

G|----------------------------------------------------------------|
D|----------------------------------------------------------------|
A|----------------------------------------------------------------|
E|0-----------0-----------0-------0-----------0-----------0-------|

G|----------------------------------------------------------------|
D|----------------------------------------------------------------|
A|4-----------4-----------4---------------------------------------|
E|--------------------------------0-----------2-----------2-------|

1:21

G|----------------------------------------------------------------|
D|----------------------------------------------------------------|
A|4-----------4-----------4---------------------------------------|
E|--------------------------------5-----------5-----------5-------|

G|----------------------------------------------------------------|
D|----------------------------------------------------------------|
A|4-----------4-----------4---------------------------------------|
E|--------------------------------2-----------2-----------2---/---|

G|----------------------------------------------------------------|
D|----------------------------------------------------------------|
A|----------------------------------------------------------------|
E|4-----------4-------------------0-------------------------------|

G|----------------------------------------------------------------|
D|----------------------------------------------------------------|
A|----------------------------------------------------------------|
E|4-----------4-----------4-------0-----------0-----------0-------|

1:38

G|----------------------------------------------------------------|
D|----------------------------------------------------------------|
A|4-----------4-----------4---------------------------------------|
E|--------------------------------5-----------5-----------5-------|

G|----------------------------------------------------------------|
D|----------------------------------------------------------------|
A|4-----------4-----------4---------------------------------------|
E|--------------------------------2-----------2-----------2-/-----|

G|----------------------------------------------------------------|
D|----------------------------------------------------------------|
A|----------------------------------------------------------------|
E|7-----------7-----------7-------7-----------7-----------6-------|

G|----------------------------------------------------------------|
D|----------------------------------------------------------------|
A|----------------------------------------------------------------|
E|4-----------4-----------4-------4-----------4-------0---2-------|

G|----------------------------------------------------------------|
D|----------------------------------------------------------------|
A|----------------------------------------------------------------|
E|0-----------0-----------0-------0-----------0-----------0-------|

G|----------------------------------------------------------------|
D|----------------------------------------------------------------|
A|4-----------4-----------4---------------------------------------|
E|--------------------------------0-----------2-----------2-/-----|

2:02

G|----------------------------------------------------------------|
D|----------------------------------------------------------------|
A|----------------------------------------------------------------|
E|7-----------7-----------7-------7-----------7-----------6-------|

G|----------------------------------------------------------------|
D|----------------------------------------------------------------|
A|----------------------------------------------------------------|
E|4-----------4-----------4-------4-----------4-------0---2-------|

G|----------------------------------------------------------------|
D|----------------------------------------------------------------|
A|----------------------------------------------------------------|
E|0-----------0-----------0-------0-----------0-----------0-------|

G|----------------------------------------------------------------|
D|----------------------------------------------------------------|
A|4-----------4-----------4---------------------------------------|
E|--------------------------------0-----------2-----------2---/---|

2:18

G|------------------------------------------------------------------|
D|------------------------------------------------------------------|
A|------------------------------------------------------------------|
E|7-----------7-----------7-------7-----------7-------0---0/7-------|

G|--------------------------------------------------------------------|
D|--------------------------------------------------------------------| fades out here.
A|--------------------------------------------------------------------|
E|4-----------4-----------4-------4-----------4-------0---2-------0---|            
Submit corrections


        She Knows Me Too Well lessons Hard to play? Try these video lessons and learn fast She Knows Me Too Well lessons
        
↑ Back to top | Tablatures and chords for acoustic guitar and electric guitar, ukulele, drums are parodies/interpretations of the original songs. You may use it for private study, scholarship, research or language learning purposes only