» » »

Beach Boys - Lets Put Our Hearts Together Bass

Artists:  A B C D E F G H I J K L M N O P Q R S T U V W X Y Z # 

Lets Put Our Hearts Together Bass

(ver. 1) Click to play this song!
Beach Boys
 Rating:
4.3/5 (22 votes)

 Lets Put Our Hearts Together lessons Tabs too difficult? Try these video lessons and learn fast
 
                
G|----------------------------------------------------------------|
D|----------------------------------------------------------------|
A|----------------------------------------------------------------| x4
E|2-----------2---2-----------------------------------------------|
B|--------------------------------2-----------2---2---------------|

0:24

G|----------------------------------------------------------------|
D|----------------------------------------------------------------|
A|--------------------------------1---------------2---------------|
E|2---------------4-----------------------------------------------|
B|----------------------------------------------------------------|

G|----------------------------------------------------------------|
D|----------------------------------------------------------------|
A|1-----------1---1-----------------------------------------------|
E|----------------------------------------------------------------|
B|--------------------------------4-----------4---4---------------|

G|----------------------------------------------------------------|
D|----------------------------------------------------------------|
A|----------------------------------------------------------------|
E|4-----------4---4---------------4-----------4---4---------------|
B|----------------------------------------------------------------|

G|----------------------------------------------------------------|
D|----------------------------------------------------------------|
A|----------------------------------------------------------------|
E|----------------4-----------4-----------------------------------|
B|2-----------2-------------------2-----------2---2---------------|

0:48

G|----------------------------------------------------------------|
D|----------------------------------------------------------------|
A|----------------------------------------------------------------| x4
E|2-----------2---2-----------------------------------------------|
B|--------------------------------2-----------2---2---------------|

1:12

G|----------------------------------------------------------------|
D|----------------------------------------------------------------|
A|--------------------------------1---------------2---------------|
E|2---------------4-----------------------------------------------|
B|----------------------------------------------------------------|

G|----------------------------------------------------------------|
D|----------------------------------------------------------------|
A|1-----------1---1-----------------------------------------------|
E|----------------------------------------------------------------|
B|--------------------------------4-----------4---4---------------|

G|----------------------------------------------------------------|
D|----------------------------------------------------------------|
A|----------------------------------------------------------------|
E|4-----------4---4---------------4-----------4---4---------------|
B|----------------------------------------------------------------|

G|----------------------------------------------------------------|
D|----------------------------------------------------------------|
A|----------------------------------------------------------------|
E|----------------4-------4---------------------------------------|
B|2-----------2-------------------2-----------2---2---------------|

1:36

G|----------------------------------------------------------------|
D|----------------------------------------------------------------|
A|----------------------------------------------------------------|
E|2-----------2-------------------2-----------2-------------------|
B|----------------2-----------2-----------------------------------|

G|----------------------------------------------------------------|
D|----------------------------------------------------------------|
A|2-----------2---------------------------------------------------|
E|----------------0-----------0---2-----------2-------------------|
B|------------------------------------------------4---------------|

G|----------------------------------------------------------------|
D|----------------------------------------------------------------|
A|----------------------------------------------------------------|
E|4-----------4---4-----------------------------------------------|
B|--------------------------------2-----------2---2---------------|

G|----------------------------------------------------------------|
D|----------------------------------------------------------------|
A|----------------------------------------------------------------|
E|2-----------2---2---------------5----------5---0----------------|
B|----------------------------------------------------------------|

G|----------------------------------------------------------------|
D|----------------------------------------------------------------|
A|----------------2---------------1-------------------------------|
E|2-----------2---------------------------------------4-----------|
B|----------------------------------------------------------------|

G|------------------|
D|------------------|
A|------------------|
E|--------------2---|
B|2-----------------|            
Submit corrections


        Lets Put Our Hearts Together lessons Hard to play? Try these video lessons and learn fast Lets Put Our Hearts Together lessons
        
↑ Back to top | Tablatures and chords for acoustic guitar and electric guitar, ukulele, drums are parodies/interpretations of the original songs. You may use it for private study, scholarship, research or language learning purposes only