Home » B » Beach Boys »

Beach Boys - Angel Come Home Chords

Artists:  A B C D E F G H I J K L M N O P Q R S T U V W X Y Z # 

Angel Come Home Chords

(ver. 1) Click to play this song!
Beach Boys
[Intro]
 
G|---------0------------0------------0------------0---|
D|-------0------------0------------0------------0-----|
A|----------------------------------------------------|
E|3---3--------3---3--------3---3--------3---3--------|
 
 
[Verse 1]
 
G|--------------------------------------------------------|
D|------------------------------2-0-----------------------|
A|----------------------------------3---3---3-2-0---------|
E|3---3----3-3---3----3-3---3-----------------------3-----|
 
G|-------------------------------0-------------------|
D|---0---0-------------------------------------------|
A|2----------0-2-3---3---2h0-------------------------|
E|---------------------------3---------3--3---3--3---|
 
G|-------------------------------------------------|
D|2-0--------------------------0---0---------------|
A|----3---3---3-2-0---------2----------0-2-3---3---|
E|--------------------3----------------------------|
 
 
[Chorus]
 
"I'm waitin' til my angel comes home..."
 
G|------------------------------------------------|
D|----------------2---0---0-----------------0-2-0-|
A|----/3---2-0----------------0-2-3-2-0-----------|
E|3------------3------------------------3-3-------|
 
G|------------------------------------|
D|0---0-----------------0-2-0---0-0---|
A|--------0-2-3-2-0-------------------|
E|------------------3-3---------------|
 
"Angel, angel come home..."
 
G|---------------------------------------------|
D|0--0-----------0-2---0--0---------------0-2--|
A|---------3--3-------------------3---3-3------|
E|------------------------------3--------------|
 
G|---------------------------------------------|
D|0--0-----------0-2---0--0--------------------|
A|---------3--3-------------------3~-----------|
E|------------------------------3--------------|
 
 
[Verse 2]
 
G|---------------------------------------------------|
D|---------------------------------------------------|
A|----------------------------3---3---3-2-0----------|
E|3---3----3-3---3----3-3---3-----------------3--3---|
 
G|------------------------------0--------------------------------|
D|---0---0-------------------------------------------------------|
A|2----------0-2-3---3---0---------------------------------------|
E|---------------------------3------3-3---3---3-3---3---3-3---3--|
 
G|----------------------------------------------|
D|2-0------------------------0--0---------------|
A|----3---3---3-2-0-----------------0-2-3---3---|
E|--------------------3--3----------------------|
 
 
[Chorus]
 
"When my angel comes home..."
 
G|------------------------------------------------------|
D|-------------------------0-2-0---0--0-----------------|
A|---3---3-----2-3-2-0--------------------0-2-3-2-0-----|
E|3----------3---------3----------------------------3-3-|
 
G|------------------------------------------------|
D|0-2-0---0--0-------------------0-0-0------------|
A|---------------0-2-3-2-0-----2---------3--------|
E|-------------------------3----------------------|
 
G|---------------------------------------------------|
D|--------0-0-0-0----------------0-2-0-0-------------|
A|------2---------2--3---3-3-2-0-----------2-3~------|
E|2-3------------------------------------------------|
 
"Angel, angel come home..."
 
G|----------------------------------------------|
D|0-0-------------0-2---0--0--------------0-2---|
A|-------3---3-3------3--------2-3---3-3------3-|
E|----------------------------------------------|
 
G|------------------------------------------0-------|
D|0--0---------------0-3---0--0---------------2---0-|
A|-------0-2-3---3-3--------------0-2-3---3-----3---|
E|--------------------------------------------------|
 
G|---------------------------------|
D|0-0/5---0-0-----------------0-2--|
A|-------------0-2---3---3-3-----3-|
E|-----------------3---------------|
 
G|--------------------------------|
D|0/5-0---0-0---------------0-2---|
A|--------------2-3---3-3-------3-|
E|--------------------------------|
 
G|-----------------------------|
D|0---0--0---------------0-2---|
A|---------0-2---3---3-3-----3-|
E|-----------------------------|
 
G|--------------------------------|
D|0/5-0---0-0---------------0-2---|
A|--------------2-3---3-3-------3-|
E|--------------------------------|
 
G|---0--------------------------|
D|0----0-----------------0-2-2--|
A|---------0-2---3---3-3--------|
E|-------------3----------------|
 
G|---0--------------------------------------------|
D|0----0-----------------0/5--0-2-0---------------|
A|---------0-2---3---3-3--------------2-3---3-3---|
E|-------------3----------------------------------|
            
Submit corrections

↑ Back to top | Tablatures and chords for acoustic guitar and electric guitar, ukulele, drums are parodies/interpretations of the original songs. You may use it for private study, scholarship, research or language learning purposes only