» » »

B. B. King - Shes Dynamite Tabs

Artists:  A B C D E F G H I J K L M N O P Q R S T U V W X Y Z # 

Shes Dynamite Tabs

(ver. 1) Click to play this song!
B. B. King
 Rating:
3.7/5 (24 votes)

 Shes Dynamite  lessons Tabs too difficult? Try these video lessons and learn fast
 
                 Intro
  Q=155(8=s8)
  N.C.
 4/4
  Gtr I
  W          W          q   E  e E E  E E   E E Q  H
|----------|----------|-8-----------------|-------------|
|----------|----------|----11-10---8----8-|-------------|
|----------|----------|--------------10---|-8-9---------|
|----------|----------|-------------------|-------------|
|----------|----------|-------------------|-------------|
|----------|----------|-------------------|-------------|


  E  E E E  E E Q     E E Q  Q  E  E   E E E E  E E  E  E    E E Q  H
|------------------|-11-8---------11-|---8---8-------------|-------------|
|---11-8-----------|-10-----------10-|---------11-8----(8)-|---8---------|
|--------8---------|-----------------|--------------10-----|-8-9---------|
|----------10-8----|-----------------|---------------------|-------------|
|------------------|-----------------|---------------------|-------------|
|------------------|-----------------|---------------------|-------------|


  E E E  E  E E  E E   +E   E Q   E  E Q
|---8----------------|-----10----10-------|
|-------11-10-8------|--------------10----|
|---------------10-8-|-(8)----------------|
|--------------------|--------------------|
|--------------------|--------------------|
|--------------------|--------------------|


  E  Q       E  E E  E E   a E  E E  E E E  E E
|---11b11.5--8-----------|-----------------------|
|--------------11-8----8-|-----------------------|
|-------------------10---|-8h9---------8---10----|
|------------------------|-----10---10-----------|
|------------------------|-----------------------|
|------------------------|-----------------------|


                     1st - 5th Verses
                  $
                      C7
  E  E Q  E  E Q       a  Q   Q   a  Q   Q
|-----------------||--11s12------11s12------|
|-----------------||o-12s13------12s13------|
|-9---------10----||---------12---------12--|
|---10-------9----||------------------------|
|-----------------||o-----------------------|
|-----------------||------------------------|


  E  a  Q   E  a  E  E  Q     a  Q   Q   a  Q   Q
|---11s12-----11s12--------|-11s12------11s12------|
|---12s13-----12s13--------|-12s13------12s13------|
|----------14-------14-12--|--------12---------12--|
|--------------------------|-----------------------|
|--------------------------|-----------------------|
|--------------------------|-----------------------|


                             F7
  E  a  Q   E  a  E  E  Q    Q   Q  E E E   E
|---11s12-----11s12--------|-8\-------8---/11-|
|---12s13-----12s13--------|-8\-------8---/10-|
|----------14-------14-12--|-8\-------8-------|
|--------------------------|------------------|
|--------------------------|------------------|
|--------------------------|------------------|


                            C7
   +E   E E E  a  E  E Q    a  Q   Q  E  E E   E
|-(11)-11-8-8-10s11-11-8--|-7s=8\--------8---/12-|
|-(10)-10-8-8--9s10-10-8--|-9s10\-------10---/13-|
|-------------------------|-8s=9\--------9-------|
|-------------------------|----------------------|
|-------------------------|----------------------|
|-------------------------|----------------------|


                              G7
   +E   E  E  E  a  E  E Q     Q  Q  Q  E E
|-(12)-12-------11s12-12----|-11----------8-|
|-(13)-13-------12s13-13----|-10----------8-|
|---------14-12-------------|-------------8-|
|---------------------------|---------------|
|---------------------------|---------------|
|---------------------------|---------------|


              To Coda
                        C7
  +Q   Q  Q  E  a  E     +Q   E E E E  E E
|-(8)----------11s12--|-(12)-------------8--|
|-(8)----------12s13--|-(13)--8-----8-10----|
|-(8)-----------------|---------8-9---------|
|---------------------|---------------------|
|---------------------|---------------------|
|---------------------|---------------------|


  1.,2.,D.S.                    3.
  E  a  E  E  E  a  E  E  Q   3x E  a  Q   E  a  E  E  Q
|---11s12-------11s12-12------||---11s12-----11s12--------||
|---12s13-------12s13-13-----o||---12s13-----12s13--------||
|---------14-12----------12---||----------14-------14-12--||
|-----------------------------||--------------------------||
|----------------------------o||--------------------------||
|-----------------------------||--------------------------||


 Saxophone Solo
  N.C.
   Q   E  E  Q  E  E   Q  E  a  E E  E E  E
|--------------------|-----------------------|
|--------------------|------11s10---10---10--|
|--9---9--9--9-----9-|------11s10---10---10--|
|-10--10-10-10----10-|-----------------------|
|--------------------|-----------------------|
|--------------------|-----------------------|


  E E Q  Q  E  E   H     E a E E  E   E E Q  Q  E  E   Q  E  E Q   E  E
|----------------|------------------|-------------11-|------11-----------|
|-8-8---------11-|------10---8------|-8-8---------10-|------10----10-10--|
|-8-9----------9-|------10-8h9------|-8-8------------|------------10-10--|
|----------------|---------------10-|----------------|-------------------|
|----------------|------------------|----------------|-------------------|
|----------------|------------------|----------------|-------------------|


  E E Q  H      E  E  E  E  E  E Q     E  E Q  Q  E  E   E  E E  E E  E E  E
|-------------|---------------------|---------------10-|---11---11---10---10-|
|-8-8---------|---11p10-10p(8)------|-10-10---------10-|---11---11---10---10-|
|-8-9---------|----------------9----|-10-10------------|---------------------|
|-------------|---------------------|------------------|---------------------|
|-------------|---------------------|------------------|---------------------|
|-------------|---------------------|------------------|---------------------|


                                   Piano Solo
                                    N.C.
  E E Q   Q   E E   H    E  E Q      Q   E  E  Q  E  E   Q  E  a  E E  E E  E
|-----------------|--------------||--------------------|-----------------------|
|-8-8----10--10-8-|--------10----||--------------------|------11s10---10---10--|
|-8-9----10--10-9-|--------10----||--9---9--9--9-----9-|------11s10---10---10--|
|-----------------|--------------||-10--10-10-10----10-|-----------------------|
|-----------------|--------------||--------------------|-----------------------|
|-----------------|--------------||--------------------|-----------------------|


  E E Q  Q  E  E   H     E a E E  E   E E Q  Q  E  E   Q  E  E Q   E  E
|----------------|------------------|-------------11-|------11-----------|
|-8-8---------11-|------10---8------|-8-8---------10-|------10----10-10--|
|-8-9----------9-|------10-8h9------|-8-8------------|------------10-10--|
|----------------|---------------10-|----------------|-------------------|
|----------------|------------------|----------------|-------------------|
|----------------|------------------|----------------|-------------------|


  E E Q  H      E  E  E  E  E  E Q     E  E Q  Q  E  E   E  E E  E E  E E  E
|-------------|---------------------|---------------10-|---11---11---10---10-|
|-8-8---------|---11p10-10p(8)------|-10-10---------10-|---11---11---10---10-|
|-8-9---------|----------------9----|-10-10------------|---------------------|
|-------------|---------------------|------------------|---------------------|
|-------------|---------------------|------------------|---------------------|
|-------------|---------------------|------------------|---------------------|


                                   Outro
                    D.S. al Coda &
                                    N.C.                       B6C6
  E E Q   Q   E E   H    E  E Q       E   E E  E  E E E E   Q  E  E  +H
|-----------------|--------------||-(12)-12---------------|----7--8--(8)----*|
|-8-8----10--10-8-|--------10----||-(13)-13---11-10-8-----|-8--9-10-(10)----*|
|-8-9----10--10-9-|--------10----||-------------------8-9-|----8--9--(9)----*|
|-----------------|--------------||-----------------------|----9-10-(10)----*|
|-----------------|--------------||-----------------------|-----------------*|
|-----------------|--------------||-----------------------|-----------------*|            
Submit corrections


        Shes Dynamite  lessons Hard to play? Try these video lessons and learn fast Shes Dynamite  lessons
        
↑ Back to top | Tablatures and chords for acoustic guitar and electric guitar, ukulele, drums are parodies/interpretations of the original songs. You may use it for private study, scholarship, research or language learning purposes only