Home » B » Bb Brunes »

Bb Brunes - Mr Hyde Tabs

Artists:  A B C D E F G H I J K L M N O P Q R S T U V W X Y Z # 

Mr Hyde Tabs

(ver. 1) Click to play this song!
Bb Brunes

intro part 1
e|-----------------------------------3-3--------------------|
B|-----8---8-----7---7----5---5--------3--------------------|
G|---------9-----7---7----5---5-----------------------------|
D|-------------7--------5--------5--------------------------|
A|---7---7-----5---5----3---3----5--------------------------|
E|-------------------------------3--------------------------|

intro part 2
e|----------------------------------------------------------|
B|-----8---8-----7---7----5---5-----------------------------|
G|---------9-----7---7----5---5-----------------------------|
D|-------------7--------5--------5-5-5-5-5-5-5-5------------|
A|---7---7-----5---5----3---3----5-5-5-5-5-5-5-5------------|
E|-------------------------------3-3-3-3-3-3-3-3------------|


Verse
e|----------------------------------------------------------|
B|-------------------8---8--------------------8---8---------|
G|---5---5-7---7-9-------9----5---5-7---7-9-------9---------|
D|---5---5-7---7-9------------5---5-7---7-9-----------------|
A|---3---3-5---5-7-----7------3---3-5---5-7-----7-----------|
E|----------------------------------------------------------|


e|-------------------3-3------------------------------------|
B|---------------------3------------------------------------|
G|---5---5-7---7-------------5---5-7---7--------------------|
D|---5---5-7---7-5-----------5---5-7---7-5---5-5------------| x2
A|---3---3-5---5-5-----------3---3-5---5-5---5-5------------|
E|---------------3-3---------------------3-3-3-3------------|


e|----------------------------------------------------------|
B|----------------------------------------------------------|
G|---5---5-7---7--------------------------------------------|
D|---5---5-7---7-5---5-5------------------------------------|
A|---3---3-5---5-5---5-5------------------------------------|
E|---------------3-3-3-3-3-3-3-3----------------------------|


Chorus
e|-----------------------------------3-3--------------------|
B|-----8---8-----7---7----5---5--------3--------------------|
G|---------9-----7---7----5---5-----------------------------|
D|-------------7--------5--------5--------------------------|  x2
A|---7---7-----5---5----3---3----5--------------------------|
E|-------------------------------3--------------------------|


After Chorus
e|----------------------------------------------------------|
B|----------------------------------------------------------|
G|---5---5-7---7--------------------------------------------|
D|---5---5-7---7-5---5-5------------------------------------|  x2
A|---3---3-5---5-5---5-5------------------------------------|
E|---------------3-3-3-3-3-3-3-3----------------------------|


intro part 1
intro part 2
verse
chorus
after chorus
verse
chorus
after chorus
intro part 1
intro part 2
chorus
after chorus x 2
            
Submit corrections

↑ Back to top | Tablatures and chords for acoustic guitar and electric guitar, ukulele, drums are parodies/interpretations of the original songs. You may use it for private study, scholarship, research or language learning purposes only