» » »

Bauhaus - God In And Alcove Tabs

Artists:  A B C D E F G H I J K L M N O P Q R S T U V W X Y Z # 

God In And Alcove Tabs

(ver. 1) Click to play this song!
Bauhaus
 Rating:
4/5 (4 votes)

 God In And Alcove lessons Tabs too difficult? Try these video lessons and learn fast
 
                                           GOD IN AN ALCOVE - Bauhaus





Note: It looks more complicated than it really is...


INTRO

e|-------0---------------0---0-------------|
B|------0---------------0------0-------0---|
G|-----0-----0---------2---------2---2-----|
D|----4--------4~0----3------------3-----0-|
A|---2---------------0---------------------|
E|--0--------------------------------------|

e|-------0---------------0----------0-------|
B|------0---------------0------------0------|
G|-----0-----0---------2--------------0-----|
D|----4--------4~0----3----------------2----|
A|---2---------------0------------------2---|
E|--0------------------------------------0--|


VERSE
  PM________________________________________________
e|-------------------------------------------------------0-----0------X-|
B|-----------------------------------------------------0---0----0-----X-|
G|---------------------------------------------------0-------0---0----X-|
D|----------------------------------------------------------------2---X-|
A|-----------------------------------------------------------------2--X-|
E|-0-0-0-0-0-0-0-0-0-0-0-0-0-5-5-0-2-2-2-2-2-2-2-2-2----------------0-X-|


CHORUS

(...coming from the verse)

e|-0------0--X--12--0----0--X--12--0h2--2--X--2--0h2--2--X--2--|
B|--0-----0--X--12--0----0--X--12--0h2--2--X--2--0h2--2--X--2--|
G|---0----0--X--12--0----0--X--12--0h3--3--X--3--0h3--3--X--3--|
D|----2---X--X------0h2--X--X------0h4--X--X--4--0h4--X--X--4--|
A|-----2--X--X------0h2--X--X------0h4--X--X--4--0h4--X--X--4--|
E|------0-X--X------0----X--X------0h2--X--X--2--0h2--X--X--2--|


OUTRO

I
e|-0----0--X--0-0----0-0---0-0h2--2--0-0---0-0---0-|
B|-0----0--X----4b5----4b5---0h2--2----4b5---4b5---|
G|-0----0--X-----------------0h3--3----------------|
D|-0h2--X--X-----------------0h4--X----------------|
A|-0h2--X--X-----------------0h4--X----------------|
E|-0----X--X-----------------0h2--X----------------|

II
e|-0---0----12-12-12--0h2-2----12-12-12-|
B|-0---0----12-12-12--0h2-2----12-12-12-|
G|-0---0----12-12-12--0h3-3----12-12-12-|
D|-0h2-X--------------0h4-X-------------|
A|-0h2-X--------------0h4-X-------------|
E|-0---X--------------0h2-X-------------|

III
e|-0---0----(12)------------------(12)---------|
B|-0---0--------(12)------------------(12)-----|
G|-0---0------------(12)------------------(12)-|
D|-0h2-X---------------------------------------|
A|-0h2-X---------------------------------------|
E|-0---X---------------------------------------|


SOLO Thing...

Layered guitars... I'll just try to get one of them out. And just mark the positions, 
up to you

to strum away madly.

e|-12---15-17----12--15--12--15----------------------------X------X-|
B|-12---15-17----12--15--12--15-just go wherever your ------X-----X-|
G|-12------------12--12--12--12-heart takes you, end on -----X----X-|
D|------------------------------------------------------------X---X-|
A|-------------------------------------------------------------X--X-|
E|--------------------------------------------------------------0-X-|


END

   pick slide
e|-------------------(12)--------(12)-----*12-*12-*12--|
B|----------------------(12)--(12)--------*12-*12-*12--|
G|-------------------------(12)-----------*12-*12-*12--|
D|-/---------------------------------------------------|
A|-/---------------------------------------------------|
E|-/----------0----------------------------------------|

NOTE: the *12 is kind of an muted harmonic, played like a harmonic but a bit off the 
fret.

Song structure:

INTRO
VERSE 8x
CHORUS 2x
VERSE 4x
CHORUS 2x
OUTRO I 2x
OUTRO II 2x
OUTRO III 1x
SOLO
END (playing the harmonics part 3x)
            
Submit corrections


        God In And Alcove lessons Hard to play? Try these video lessons and learn fast God In And Alcove lessons
        
↑ Back to top | Tablatures and chords for acoustic guitar and electric guitar, ukulele, drums are parodies/interpretations of the original songs. You may use it for private study, scholarship, research or language learning purposes only