» » »

Basement - Just A Life Tabs

Artists:  A B C D E F G H I J K L M N O P Q R S T U V W X Y Z # 

Just A Life Tabs

(ver. 1) Click to play this song!
Basement
 Rating:
4.3/5 (29 votes)

 Just A Life lessons Tabs too difficult? Try these video lessons and learn fast
 
                BPM: 110

[Intro]

e|-----------------|-----------------|-----------------|-----------------|
B|-----------------|-----------------|-----------------|-----------------|
G|-----------------|-----------------|-----------------|-----------------|
D|-2-2-2-2-1-1-1-1-|-4-4-4-4-x-6-6-6-|-2-2-2-2-2-2-2-2-|-2-2-2-2-2-2-2-2-|
A|-0-0-0-0-0-0-0-0-|-2-2-2-2-x-2-2-2-|-2-2-2-2-2-2-2-2-|-2-2-2-2-2-2-2-2-|
E|-----------------|-4-4-4-4-x-4-4-4-|-0-0-0-0-0-0-0-0-|-0-0-0-0-0-0-0-0-|

e|-----------------|-----------------|-----------------|-----------------|
B|-----------------|-----------------|-----------------|-----------------|
G|-----------------|-----------------|-----------------|--6---6---6---6--|
D|-2-2-2-2-1-1-1-1-|-4-4-4-4-x-6-6-6-|-2-2-2-2-2-2-2-2-|--6---6---6---6--|
A|-0-0-0-0-0-0-0-0-|-2-2-2-2-x-2-2-2-|-2-2-2-2-2-2-2-2-|--4---4---4---4--|
E|-----------------|-4-4-4-4-x-4-4-4-|-0-0-0-0-0-0-0-0-|-----------------|

e|-----------------|-----------------|
B|-----------------|-----------------|
G|-----------------|-----------------|
D|-2-2-2-2-1-1-1-1-|-4-4-4-4-x-6-6-6-|
A|-0-0-0-0-0-0-0-0-|-2-2-2-2-x-2-2-2-|
E|-----------------|-4-4-4-4-x-4-4-4-|

e|-----------------|-----------------|-----------------|-----------------|
B|-----------------|-----------------|-----4-------4---|-----4-------4---|
G|-----------------|-----------------|-------4-------4-|-------4-------4-|
D|-----2-1-----1h2-|-----2-1-----1h2-|---6-------6-----|---6-------6-----|
A|---2-----2-------|---2-----2-------|-4-------4-------|-4-------4-------|
E|-0---------0-----|-0---------0-----|-----------------|-----------------|

[Verse]

e|-----------------|-----------------|-----------------|-----------------|
B|-----------------|-----------------|-----4-------4---|-----4-------4---|
G|-----------------|-----------------|-------4-------4-|-------4-------4-|
D|-----2-1-----1h2-|-----2-1-----1h2-|---6-------6-----|---6-------6-----|
A|---2-----2-------|---2-----2-------|-4-------4-------|-4-------4-------|
E|-0---------0-----|-0---------0-----|-----------------|-----------------|

e|-----------------|-----------------|-----------------|-----------------|
B|-----------------|-----------------|-----4-------4---|-----4-------4---|
G|-----------------|-----------------|-------4-------4-|-------4-------4-|
D|-----2-1-----1h2-|-----2-1-----1h2-|---6-------6-----|---6-------6-----|
A|---2-----2-------|---2-----2-------|-4-------4-------|-4-------4-------|
E|-0---------0-----|-0---------0-----|-----------------|-----------------|

[Chorus]

            
Submit corrections


        Just A Life lessons Hard to play? Try these video lessons and learn fast Just A Life lessons
        
↑ Back to top | Tablatures and chords for acoustic guitar and electric guitar, ukulele, drums are parodies/interpretations of the original songs. You may use it for private study, scholarship, research or language learning purposes only