Home » B » Barry Manilow »

Barry Manilow - Copacabana Bass

Artists:  A B C D E F G H I J K L M N O P Q R S T U V W X Y Z # 

Copacabana Bass

(ver. 1) Click to play this song!
Barry Manilow
[Intro]
(Wait 3 measures, come in at the end of 4th measure. Listen to recording for timing)
G|------------------------|---------------|--------------------------------|
D|-1-2-3-4-5--5-----5-----|-3--3-----3--4-|-5--5------5------3-------------|
A|---------------5------5-|-------3-------|--------5------5-----3----------|
E|------------------------|---------------|------------------------3-------|

[Verse]
...Lola...
G|----------------|-------------------|----------------|----------------|
D|----------------|-1--------1--1--1--|---------0---0--|----------------|
A|---------1------|-----1-1------1----|-0---0----------|----------------|
E|-1---1-------1--|-------------------|----------------|-3---3-3-3--3---|

...Merengue...
G|----------------|----------------|----------------|---------------------|
D|--------------1-|-1--1----1------|-------0-0------|---------------------|
A|------1-1---1---|-------1-----1--|-0---0-------0--|---------------------|
E|-1--1-----------|----------------|----------------|-3--3-3-3---3---3----|

[Bridge]
...Crowded Floor...
   >  >  >    >  >  >    >    >  
G|----------|----------|----------|---------------|
D|----------|----------|----------|-5---4---3-----|
A|----------|----5-----|-3----5---|---------------|
E|-5--5--3--|-5-----3--|----------|---------------|
   
[Chorus]
...Copa...
G|---------------|--------------|------------------|----------------|
D|---------------|-1-----1-1----|------------------|----------------|
A|-------1-1-----|----1------1--|----------3--5--6-|-6--------------|
E|-1---1------1--|--------------|-3--5--6----------|----6---3-------|
                      >   
G|---------------|----0h3h5----|------------------|-----------------|-------------------|
D|---------------|-------------|------------------|-----------------|-------------------|
A|-------1-1--1--|-3-----------|----------1---1-1-|---------3---3-3-|-----------2-3-4-5-|
E|-1---1---------|-------------|-1---1-1----------|-3---3-3---------|-2-3-4-5-6---------|


[Interlude/Outro]

G|--------------------|----------------------|--------------------|-------------|
D|------5-------------|-------3--------------|-------5------------|---3--5------|
A|-5-------5---5---5--|-3--------3----3---3--|-5--------5---5--5--|-3-----------|
E|--------------------|----------------------|--------------------|-------------|

            
Submit corrections

↑ Back to top | Tablatures and chords for acoustic guitar and electric guitar, ukulele, drums are parodies/interpretations of the original songs. You may use it for private study, scholarship, research or language learning purposes only