» » »

Bap - Anna Chords

Artists:  A B C D E F G H I J K L M N O P Q R S T U V W X Y Z # 

Anna Chords

(ver. 1) Click to play this song!
Bap
 Rating:
4.3/5 (12 votes)

 Anna lessons Tabs too difficult? Try these video lessons and learn fast
 
                [Intro]
F#m   E6/9  C#m7   E6/9   
F#m   E6/9  C#m7   E6/9    

[Verse]
        F#m7                       Bm7
Do bess janz für mich do su wie en Mamm für der Panz.
        E7         C#m7        F#m7
Wenn de Löwin sinn darfs, dann jisste dich ganz
        F#m7                   Bm7
do bess neugierich selfsüchtig, wie e klei Kind.
      E7             C#m7        F#m7
Jäjem Lot' sing Frau möhts do ee Salzbergwerk sinn.

[Chorus]
A     C#m7 Bm7            F#m
Anna, Anna drieh dich nit öm
D     E E                 F#m  E6/9  C#m7  F#m  E6/9  C#m7
Anna, Anna drieh dich nit öm

[Verse]
    F#m7                                  Bm7
Moondachs besste en Friedhoff Diensdaachs besste ne Pfuff
          E7            C#m7        F#m7
Mittwochs dräumste dich fruh Donnersdaach stirvste em Suff
    F#m7                             Bm7
Friedaachs isste kein Fleisch Sabbat arbeitste nie
               E7        C#m7       F#m7
do spaars ding Power für Sonndaachs Annamarie.

[Chorus]
A     C#m7 Bm7            F#m
Anna, Anna drieh dich nit öm
D     E E                 F#m  E6/9  C#m7  F#m  E6/9  C#m7
Anna, Anna drieh dich nit öm

[Verse]
      F#m7                   Bm7
Oh du Annachronismus bess en komische Frau
       E7         C#m7             F#m7
dingen Janus-Kopp stink mer un dat weißte jenau.
         F#m7                  Bm7
Do wills Priesterin Hex sinn Torero un Stier
            E7         C#m7                 F#m7
nur wenn de janit mieh durchblicks frööhste och ens noh mir.

[Chorus]
A     C#m7 Bm7            F#m
Anna, Anna drieh dich nit öm
D     E E                 F#m  E6/9  C#m7  F#m  E6/9  C#m7
Anna, Anna drieh dich nit öm

[Key-Solo}
F#m7  Bm7  E7  C#m7  F#m7  8x

[Gtr-Solo]
A C#m7 Bm7 F#m D     F#m E6/9 C#m7 F#m E6/9 C#m7

e|----------12/14--14\12--9----------------------------------------------|
B|---------------------------------------10---12b14--10-12------10-12b14-|
G|--9-9h11------------------11-----9h11--------------------9-11----------|
D|-----------------------------------------------------------------------|
A|-----------------------------------------------------------------------|
E|-----------------------------------------------------------------------|

e|-----------------------------------------------------|
B|--9-9h10p9-------------------------------------------|
G|--------------------8/9--11--11--11--9h11p9----------|
D|------------11--11---------------------------9h11----|
A|-----------------------------------------------------|
E|-----------------------------------------------------|

[Verse]
            F#m7                        Bm7
Ich hann de Naas voll von dir un dinger Schizzophrenie
          E7               C#m7     F#m7
dämm ewje Hin und Her Hick Hack ich pack et nit mieh.
          F#m7                         Bm7
Vun dinge Austausch-Jeseechter ess nur eins nit zovil
               E7        C#m7                  F#m7
wenn't sin muß mähßte so wigger doch dann loss mich uss dem Spill.

[Chorus]
A     C#m7 Bm7            F#m     D     E E
Anna, Anna drieh dich nit öm      Anna, Anna

            
Submit corrections


        Anna lessons Hard to play? Try these video lessons and learn fast Anna lessons
        
↑ Back to top | Tablatures and chords for acoustic guitar and electric guitar, ukulele, drums are parodies/interpretations of the original songs. You may use it for private study, scholarship, research or language learning purposes only