» » »

Band Of Skulls - Death By Diamonds And Pearls Tabs

Artists:  A B C D E F G H I J K L M N O P Q R S T U V W X Y Z # 

Death By Diamonds And Pearls Tabs

(ver. 1) Click to play this song!
Band Of Skulls
 Rating:
4.4/5 (11 votes)

 Death By Diamonds And Pearls lessons Tabs too difficult? Try these video lessons and learn fast
 
                [Intro riff]
He uses delay to get steady second strum but you can just play it yourself.
e|---------------------------2-2-----------------------------------|
B|---4-4----4-4----4-4--2-2--3-3-----------------------------4-4---|    (x2)
G|---4-4----4-4----4-4--2-2--2-2-----4-4----4-4----4-4--3-3--4-4---|   
D|---4-4----4-4----4-4--2-2----------5-5----5-5----5-5--4-4--4-4---|
A|-----------------------------------5-5----5-5----5-5--4-4--------|
E|-----------------------------------------------------------------|

[Verses]
e|-------------------2-2-----------------------|
B|---4-4-------------3-3-----------------------|
G|---4-4-------------2-2------------1-1--1-1---|
D|---4-4----------------------------2-2--2-2---|
A|----------------------------------2-2--2-2---|
E|---------------------------------------------|

["...death by diamonds and..." bridge]
e|---------|
B|---------|
G|---1-1---|    (x4)
D|---2-2---|
A|---2-2---|
E|---------|

[Chorus]
                           pm.....
e|---------------------2--------------------------------|
B|------------------2--3--------------------------------|
G|---4----4----4-4--2--2----------------------------4---|   (x2)
D|---4----4----4-4--2-------5-5-5-5-5----5-5-5---4--4---|
A|---2----2----2-2----------5-5-5-5-5----5-5-5---4--2---|
E|--------------------------3-3-3-3-3----3-3-3---2------|


He plays solo with a heavy use of floyd rose vibrato to get this crazy sound 
but you can imitate it with fingers
[Solo]
e|---------------------------------------------|
B|---17b--17b~---17b~~~~--17---15--------15~~~-|
G|---------------------------------16~---------|
D|---------------------------------------------|
A|---------------------------------------------|
E|---------------------------------------------|

e|-----------------------------------------------------|
B|---17b----pb17-r-p15-h17-(b)----17--b--r--15---------|
G|----------------------------------------------16\----|
D|-----------------------------------------------------|
A|-----------------------------------------------------|
E|-----------------------------------------------------|

e|---------------------------------------------|
B|---17b--17b~---17b~~~~--17---15--------15~~~-|
G|---------------------------------16~---------|
D|---------------------------------------------|
A|---------------------------------------------|
E|---------------------------------------------|

b|-------------------------------------------------------------------------|
B|---15h17p15\14------14h15p14\12------12h14p12\10--10h12p10\8----8----7---|
G|-------------------------------------------------------------------------|
D|-------------------------------------------------------------------------|
A|-------------------------------------------------------------------------|
E|-------------------------------------------------------------------------|
                                                                   noise pause here
e|----------------------------------------------------------------------------------|
B|-----------------------------------------------------------7~~7-------------------|
G|---4-/-6---6h7--6~~--6h7p6h7--9p7p6--7p6\4---4---6--------------------------------|
D|------------------------------------------------------pbr4------------------------|
A|----------------------------------------------------------------------------------|
E|----------------------------------------------------------------------------------|

e|--------------------------------------------------------10~~~-----|
B|-------------------------------------------------------------12~~~|
G|---8h9~~~~7-7~~~-6--6~~~~-7~~--9p7h9/11--9--11---b---r------------|
D|------------------------------------------------------------------|
A|------------------------------------------------------------------|
E|------------------------------------------------------------------|

            
Submit corrections


        Death By Diamonds And Pearls lessons Hard to play? Try these video lessons and learn fast Death By Diamonds And Pearls lessons
        
↑ Back to top | Tablatures and chords for acoustic guitar and electric guitar, ukulele, drums are parodies/interpretations of the original songs. You may use it for private study, scholarship, research or language learning purposes only