» » »

Band Of Horses - Part One Tabs

Artists:  A B C D E F G H I J K L M N O P Q R S T U V W X Y Z # 

Part One Tabs

(ver. 1) Click to play this song!
Band Of Horses
 Rating:
4.3/5 (16 votes)

 Part One lessons Tabs too difficult? Try these video lessons and learn fast
 
                [Intro]
    C                C(add9)           C
E|-----------------------------------------|
B|--1----------1-----3----------3------1---|
G|-----0-----0--0-------0----0---0---------|
D|-------0h2--------------0h2--------------|
A|--3----------------3-----------------3---|
E|-----------------------------------------|


[Verse]

    C                C(add9)           C               C(add9)
E|---------------------------------------------------------------------|
B|--1----------1-----3----------3------1----------1----3----------3----|
G|-----0-----0--0-------0----0---0-------0-----0---0------0----0---0---|
D|-------0h2--------------0h2---------------0h2-------------0h2--------|
A|--3----------------3-----------------3---------------3---------------|
E|---------------------------------------------------------------------|

    Cmaj7#5          Caugg(add9)       F
E|-------------------------------------------------1-------------------|
B|--0----------0-----3----------3------1-------1-----------------------|
G|-----1-----1--1-------1----1---1-------2---2---2---------------------|
D|-------0h2--------------0h2--------------3---------------------------|
A|--2----------------2-------------------------------------------------|
E|-------------------------------------1-------------------------------|

[Chorus]

    C                C(add9)           C               C(add9)
E|---------------------------------------------------------------------|
B|--1----------1-----3----------3------1----------1----3----------3----|
G|-----0-----0--0-------0----0---0-------0-----0---0------0----0---0---|
D|-------0h2--------------0h2---------------0h2-------------0h2--------|
A|--3----------------3-----------------3---------------3---------------|
E|---------------------------------------------------------------------|

    Cmaj7#5          Caugg(add9)       F
E|-------------------------------------------------1-------------------|
B|--0----------0-----3----------3------1-------1-----------------------|
G|-----1-----1--1-------1----1---1-------2---2---2---------------------|
D|-------0h2--------------0h2--------------3---------------------------|
A|--2----------------2-------------------------------------------------|
E|-------------------------------------1-------------------------------|


[Outro]

e|--------------------------|
B|------------0-------1-----|
G|--------------0-------2---|
D|--------------------------|
A|----------2-------3-------|
E|--------------------------|

e|-------------------------0-|
B|------0-------1----------1-|
G|--------0-------2--------0-|
D|-------------------------2-|
A|----2-------3------------3-|
E|---------------------------|

  C/D
e|-0------------------------|
B|-3------------------------|
G|-0------------------------|
D|-2------------------------|
A|-3------------------------|
E|--------------------------|

            
Submit corrections


        Part One lessons Hard to play? Try these video lessons and learn fast Part One lessons
        
↑ Back to top | Tablatures and chords for acoustic guitar and electric guitar, ukulele, drums are parodies/interpretations of the original songs. You may use it for private study, scholarship, research or language learning purposes only