Home » B » Band Of Horses »

Band Of Horses - Cigarettes Wedding Bands Bass

Artists:  A B C D E F G H I J K L M N O P Q R S T U V W X Y Z # 

Cigarettes Wedding Bands Bass

(ver. 1) Click to play this song!
Band Of Horses
[Intro]
G|------------------------------------|------------------------------------|
D|------------------------------------|------------------------------------|
A|--0----0--0--0--0-------------------|--0----0--0--0--0-------------------|
E|-------------------0----0--0--0--0--|-------------------0----0--0--0--0--|
B|------------------------------------|------------------------------------|
 
G|------------------------------------|------------------------------------|
D|------------------------------------|------------------------------------|
A|--0----0--0--0--0-------------------|------------------------------------|
E|-------------------0----0--0--0--0--|--1----1--1--1--1--3----3--3--3--3--|
B|------------------------------------|------------------------------------|
 
[Verse 1]
G|-------------------------------|----------------------------|
D|-------------------------------|----------------------------|
A|--0----------------------------|----------------------------| x9
E|---------------0----0--3--0----|----------------------------|
B|-------------------------------|--3------------3------------|
 
The working man's day, we just p**s it away
We sit out in the weather
Familiar he said, time soon breeds contempt
Wash your hands of it forever
Violence it ripped through the old dogwood fence
See the whole scene unravel
The drunk brother said he could reason with them
 
[Chorus 1]
D|------------------------------------|------------------------------------|
G|------------------------------------|------------------------------------|
A|--3----3--3--3--3--7----7--7--7--7--|--5----5--7--5--0--5----5--7--5--0--| x2
E|------------------------------------|------------------------------------|
B|------------------------------------|------------------------------------|
 
While they lied at night, they lied at night
While they lied
While they lied at night, they lied at night
While they lied
 
 
[Verse 2]
G|-------------------------------|----------------------------|
D|-------------------------------|----------------------------|
A|--0----------------------------|----------------------------| x5
E|---------------0----0--3--0----|----------------------------|
B|-------------------------------|--3------------3------------|
 
The picture was left on the front porch
The back said "I love you, don't you ever think of me?"
If my body goes then to hell with my soul
We don't even know the difference
The dead folks in the clouds, for crying out loud
 
 
[Chorus 2]
D|------------------------------------|------------------------------------|
G|------------------------------------|------------------------------------|
A|--3----3--3--3--3--7----7--7--7--7--|--5----5--7--5--0--5----5--7--5--0--| x2
E|------------------------------------|------------------------------------|
B|------------------------------------|------------------------------------|
 
While they lied at night, they lied at night
While they lied
While they lied at night, they lied at night
While they lied
 
 
[Bridge]
D|------------------------------------|------------------------------------|
G|--5----5--5--5--5--5----5--5--5--5--|------------------------------------|
A|------------------------------------|--5----5--5--5--5--5----5--5--5--5--|
E|------------------------------------|------------------------------------|
B|------------------------------------|------------------------------------|
 
And why did we live so long?
 
D|------------------------------------|------------------------------------|
G|------------------------------------|------------------------------------|
A|--3----3--3--3--3--7----7--7--7--7--|--5----5--7--5--0--5----5--7--5--0--| x2
E|------------------------------------|------------------------------------|
B|------------------------------------|------------------------------------|
 
Long, long
 
[Intro Again]
G|------------------------------------|------------------------------------|
D|------------------------------------|------------------------------------|
A|--0----0--0--0--0-------------------|--0----0--0--0--0-------------------|
E|-------------------0----0--0--0--0--|-------------------0----0--0--0--0--|
B|------------------------------------|------------------------------------|
 
G|------------------------------------|------------------------------------|
D|------------------------------------|------------------------------------|
A|--0----0--0--0--0-------------------|------------------------------------|
E|-------------------0----0--0--0--0--|--1----1--1--1--1--3----3--3--3--3--|
B|------------------------------------|------------------------------------|
 
 
[Verse 3]
G|-------------------------------|----------------------------|
D|-------------------------------|----------------------------|
A|--0----------------------------|----------------------------| x5
E|---------------0----0--3--0----|----------------------------|
B|-------------------------------|--3------------3------------|
 
The house is not the same since we left it that day
Old friends seem to wander
Our parents' hands, cigarettes, wedding bands
 
 
[Chorus 3]
D|------------------------------------|------------------------------------|
G|------------------------------------|------------------------------------|
A|--3----3--3--3--3--7----7--7--7--7--|--5----5--7--5--0--5----5--7--5--0--| x2
E|------------------------------------|------------------------------------|
B|------------------------------------|------------------------------------|
 
While they lied at night, they lied at night
While they lied
While they lied at night, they lied at night
While they lied
 
 
[Bridge]
D|------------------------------------|------------------------------------|
G|--5----5--5--5--5--5----5--5--5--5--|------------------------------------|
A|------------------------------------|--5----5--5--5--5--5----5--5--5--5--|
E|------------------------------------|------------------------------------|
B|------------------------------------|------------------------------------|
 
And why did we live so long?
 
D|------------------------------------|------------------------------------|
G|------------------------------------|------------------------------------|
A|--3----3--3--3--3--7----7--7--7--7--|--5----5--7--5--0--5----5--7--5--0--| x2
E|------------------------------------|------------------------------------|
B|------------------------------------|------------------------------------|
 
Long, long
 
[Instrumental Section] x2
D|------------------------------------|------------------------------------|
G|------------------------------------|------------------------------------|
A|--0----0--0--0--0--0----0--0--0--0--|--0----0--0--0--0--0----0--0--0--0--|
E|------------------------------------|------------------------------------|
B|------------------------------------|------------------------------------|
 
D|------------------------------------|------------------------------------|
G|------------------------------------|------------------------------------|
A|------------------------------------|------------------------------------|
E|--0----0--0--0--0--0----0--0--0--0--|--1----1--1--1--1--3----3--3--3--3--|
B|------------------------------------|------------------------------------|
 
D|------------------------------------|------------------------------------|
G|------------------------------------|------------------------------------|
A|--5----5--5--5--5--5----5--5--5--5--|--5----5--5--5--5--5----5--5--5--5--|
E|------------------------------------|------------------------------------|
B|------------------------------------|------------------------------------|
 
 
[Chorus 4]
D|------------------------------------|------------------------------------|
G|------------------------------------|------------------------------------|
A|--3----3--3--3--3--7----7--7--7--7--|--5----5--7--5--0--5----5--7--5--0--| x3
E|------------------------------------|------------------------------------|
B|------------------------------------|------------------------------------|
 
D|------------------------------------|------------------------------------|
G|------------------------------------|------------------------------------|
A|--3----3--3--3--3--7----7--7--7--7--|--5---------------------------------|
E|------------------------------------|------------------------------------|
B|------------------------------------|------------------------------------|
 
While they lied at night, they lied at night
While they lied
While they lied at night, they lied at night
While they lied
While they lied at night, they lied at night
While they lied
Oh
            
Submit corrections

↑ Back to top | Tablatures and chords for acoustic guitar and electric guitar, ukulele, drums are parodies/interpretations of the original songs. You may use it for private study, scholarship, research or language learning purposes only